Boyce Avenue - Roar Chords & Tabs

 

Boyce Avenue Chords & Tabs

Version: 2 Type: Tab 0 ratings
1 star 2 stars 3 stars 4 stars 5 stars
comments

Roar Tab

   
Roar - Boyce Avenue feat. Bea Miller
Tabbed by: Kingsley

Tuning: Whole Step Down

Verse:
e|---------------------------3-------------|
B|-------0-1-------0-3-------0-1-------0-3-|
G|-----0---0-----0---0-----0---0-----0---0-|
D|---0---------2---------0---------2-------|
A|---------3---------3---------3---------3-|
E|-3---------0---------3---------0---------|

Pre-Chorus
e|-----------------------------------------------------------|
B|-------0-------------0-1p0-----------0-------------0-1h3-1-|
G|-----0---0---0-----0-------2p0-----0---0---0-----0---------|
D|---0-------0-----0---------------2-------2-----2-----------|
A|-----------------------0-----------------------------3-----|
E|-3-------------3---------------0-------------0-------------|

e|-------------------------------------------------------|
B|-------0-------------0-1p0-----------0-------------0-3-|
G|-----0---0---0-----0-------2p0-----0---0---0-----0---0-|
D|---0-------0-----0---------------2-------2-----2-------|
A|-----------------------0-----------------------------3-|
E|-3-------------3---------------0-------------0---------|

Chorus:
     x2
e|---------|----------|
B|-0-1-0-1-|0-1-0-3-0-|
G|-0-0-0-0-|0-0-0-0-0-|
D|---------|----------|
A|---3---3-|--3---3---|
E|-3---0---|3---0---3-|

Verse:
e|---------------------|
B|-------0-1-------0-3-|
G|-----0---0-----0---0-|
D|---0---------2-------|
A|---------3---------3-|
E|-3---------0---------|
[ Tab from: http://www.guitartabs.cc/tabs/b/boyce_avenue/roar_tab_ver_2.html ]
Pre-Chorus
e|-----------------------------------------------------------|
B|-------0-------------0-1p0-----------0-------------0-1h3-1-|
G|-----0---0---0-----0-------2p0-----0---0---0-----0---------|
D|---0-------0-----0---------------2-------2-----2-----------|
A|-----------------------0-----------------------------3-----|
E|-3-------------3---------------0-------------0-------------|

e|-------------------------------------------------------|
B|-------0-------------0-1p0-----------0-------------0-3-|
G|-----0---0---0-----0-------2p0-----0---0---0-----0---0-|
D|---0-------0-----0---------------2-------2-----2-------|
A|-----------------------0-----------------------------3-|
E|-3-------------3---------------0-------------0---------|

Chorus:
e|---------------------------------------------------------------|
B|-------3--------------3-1p0-----------3--------------3-1p0-----|
G|-----0-----0---0----0-------2p0-----0-----0---0----0-------2p0-|
D|---0---------0----0---------------2---------2----2-------------| x3
A|------------------------0------------------------------0-------|
E|-3-------3------3---------------0-------0------0---------------|

Bridge:
e|---------|-0-|
B|-0-1-0-3-|-3-|
G|-0-0-0-2-|-2-|
D|---------|-0-|
A|---3-2-0-|-0-|
E|-3-------|-3-|

Chorus:                G
I got the eye of the tiger, a fighter
   G                Cadd9
Dancing through the fire
      Em7                  Em7            Cadd9 G
Cause I am a champion, and you're gonna hear me roar
           G          Cadd9    
Louder' louder than a lion
      Em7                  Em7            Cadd9 G
Cause I am a champion, and you're gonna hear me roar!
                           _
  Oh oh oh oh oh oh oh oh   |
                            |
  Oh oh oh oh oh oh oh oh   |
Em7                         | x2
  Oh oh oh oh oh oh oh oh   | 
               Cadd9 G      |
You're gonna hear me roar! _|
Comments
Boyce Avenue chords | Boyce Avenue Roar tab