Boy Sets Fire - Rookie Chords & Tabs

 

Rookie Chords & Tabs

Boy Sets Fire Chords & Tabs

Version: 1 Type: Tab 0 ratings
1 star 2 stars 3 stars 4 stars 5 stars
comments

Rookie Tab

   
Song-Rookie
Artist-Boy Sets Fire
Album-After The Eulogy
*Standard Tuning*
Tabbed By-mAsZ1dAh
-------------------------------------------------------------------------------------------------
Intro(Distortion)-
e|----------------------|
B|----------------------|
G|-7-************-------|
D|-7-************-------| 
A|-5-************-------|
E|----------------------|

e|-----------------------------------------|
B|-----------------------------------------|
G|-10-10-10-9-9-9-12-12-12-9-9-9-10-10-9-9-| 
D|-----------------------------------------| X 16 
A|-----------------------------------------|
E|-----------------------------------------|

e|-----------------|
B|-----------------|                    
G|-7-7-7-7-10-10-5-|                    
D|-7-7-7-7-10-10-5-|                    
A|-5-5-5-5-8--8--3-| 
E|-----------------|                    

Verse-
e|--------------|
B|--------------|
G|-7--5--10--12-|
D|-7--5--10--12-|
A|-5--3--8---10-|
E|--------------|



Interlude-
e|--------------------|                    
B|-7--7--7--7--9--9--5|                    
G|-7--7--7--7--9--9--5|                    
D|-5--5--5--5--7--7--3| X 8 
A|--------------------|                    
E|--------------------|                    
[ Tab from: http://www.guitartabs.cc/tabs/b/boy_sets_fire/rookie_tab.html ]
e|--------------------------------------------------------------------------|
B|--------------------------------------------------------------------------|
G|-10-10-10-9-9-9-7-7-7-7-7-9-9-10-10-10-10-9-9-9-5-5-5-5-5-9-9-10-10-10-10-|
D|--------------------------------------------------------------------------|
A|--------------------------------------------------------------------------|
E|--------------------------------------------------------------------------|

e|--------------------------------------------------------------------------------|
B|--------------------------------------------------------------------------------|
G|-12-12-12-12-12-12-12-12-12-12-10-10-9-9-10-10-10-12-12-12-10-10-14-14-14-12-12-|
D|--------------------------------------------------------------------------------| X 2
A|--------------------------------------------------------------------------------|
E|--------------------------------------------------------------------------------|

e|-----------------15------17-----15---------|
B|-15------13-----------------------------13-|
G|-------------------------------------------|
D|-------------------------------------------| X4 
A|-------------------------------------------|
E|-------------------------------------------|


Outro-
e|-----------------------------------------|
B|-----------------------------------------|
G|-10-10-10-9-9-9-12-12-12-9-9-9-10-10-9-9-| X 8 
D|-----------------------------------------|
A|-----------------------------------------|
E|-----------------------------------------|

e|-----------------------------------|                    
B|-7--7--7--7--10--10--5-************|                    
G|-7--7--7--7--10--10--5-************|                    
D|-5--5--5--5--8-- 8---3-************| 
A|-----------------------------------|                    
E|-----------------------------------|
Comments