Boy Sets Fire - Rookie Chords & Tabs

 

Rookie Chords & Tabs

Boy Sets Fire Chords & Tabs

Version: 1 Type: Bass Tab 0 ratings
1 star 2 stars 3 stars 4 stars 5 stars
comments

Rookie Bass Tab

ROOKIE - Boy Sets Fire

Tabbed By: v (ZServo@aol.com)

INTRO:
G|--------------------------------------------------------------------------|
D|--------------------------------------3333333333333333--5555555555555555--|
A|--5555555555555555--3333333333333333--------------------------------------|
D|--------------------------------------------------------------------------|

POST INTRO:
G|-----------|
D|--3--2-----|
A|--------3--|
D|-----------|

VERSE:
G|-----------------------------------------------------------------|
D|-----------------------------------------------------------------|
A|-----------------------------033333333333--555555--333333--5535--|
D|--000000000000--33333333333--------------------------------------|
[ Tab from: http://www.guitartabs.cc/tabs/b/boy_sets_fire/rookie_btab.html ]
CHORUS:
G|-----------------------------------------------------------------|
D|-----------------------------------------------------------------|
A|-----------------------------033333333333--555555--333333--5535--|
D|--000000000000--33333333333--------------------------------------|

BRIDGE:
G|--------------------------------------------|
D|--3-2----3-2----3-2----3-2----3-2----3-2----|
A|------5------3------3------5------3------3--|
D|--------------------------------------------|

SOLO:
G|-----------------------------|
D|-----------------------------|
A|-----------------------------|
D|--88-7-0--00-2-0--00-4-0-00--|

FINAL CHORUS:
G|----------------------------------------------------------|
D|----------------------------------------------------------|
A|--555555555555----------------033333333333--555555553333--|
D|----------------333333333333------------------------------|

OUTRO:
G|-----------|
D|-----------|
A|-----------|
D|--3--2--0--|

INTRO:        (4X)
CHORUS:       (2X)
POST INTRO:   (1X)
VERSE:        (4X)
CHORUS:       (2X)
BRIDGE:       (2X)
VERSE:        (2X)
SOLO:        (20X)
CHORUS:       (2X)
FINAL CHORUS: (2X)
OUTRO:        (1X)

Special Thanks: Boy Sets Fire
		Ibanez & Yahama Bass Guitars
		Paper Street Soap Company
Comments