Boy Sets Fire - Cavity Chords & Tabs

 

Cavity Chords & Tabs

Boy Sets Fire Chords & Tabs

Version: 1 Type: Bass Tab 0 ratings
1 star 2 stars 3 stars 4 stars 5 stars
comments

Cavity Bass Tab

Artist: Boy Sets Fire
Song: Cavity
Album: In Crysalis
Tabbed by: Dan C.

~ = Let ring

(10 seconds in)
Chorus
G|----------0-0000000------------------0-0000000-222-0-2-0
D|-0-0-3-2------------3-0-0000000-3-2-----------------------
A|-----------------------3-----------------------------------
E|----------------------------------------------------------
x2, second time on the first part, dont 
	play the open d in the beginning

Verse
G|---------
D|-3----3---0
A|--3-0--3-
E|--------
[ Tab from: http://www.guitartabs.cc/tabs/b/boy_sets_fire/cavity_btab.html ]
G|------------------------------------
D|-----------------------00000000
A|-11111111-33333333----------	x2
E|---------------------------------

then Chorus,
Verse,
Chorus,
then,

G|------2222-----3333-----2222-----3333
D|-0000-----2222-----3333-----5555-----
A|------------------------------------------
E|------------------------------------------- x10

Ending
G|--------
D|-0~--
A|--------
E|---------

Any questions, comments, or suggestions for other tabs? 
Email me at Lenderhavn@aol.com
Comments