Boy Sets Fire - And The Power Remains The Same Chords & Tabs

 

And The Power Remains The Same Chords & Tabs

Boy Sets Fire Chords & Tabs

Version: 2 Type: Bass Tab 0 ratings
1 star 2 stars 3 stars 4 stars 5 stars
comments

And The Power Remains The Same Bass Tab

Boy Sets Fire	
"And the Power Remains the Same"
Bass Tab
By Brendan Moran (RAT375@aol.com)

Tune 4th string down 1 whole step


Intro: Repeat several times

G| -------7--x----2-----2---2h3-3-3--|
D| -0-0----x---x------0---0----------|
A| ----------------------------------|
D| ----------------------------------|

Verse:

G| ------------------------------------------------------------|
D| -1-1-1----3----0------------------------------------1-1-1---|
A| -----------------------0h3-3-3-3-3h5-5-5-5-5----------------|
D| ------------------------------------------------------------|

G| ---------------0h1-1-1-1---1h2-2-2-2-2--|
D| -3----0---------------------------------|
A| ----------------------------------------|
D| ----------------------------------------|

Repeat Intro: Repeat several times
[ Tab from: http://www.guitartabs.cc/tabs/b/boy_sets_fire/and_the_power_remains_the_same_btab_ver_2.html ]
G| -------7--x----2-----2---2h3-3-3--|
D| -0-0----x---x------0---0----------|
A| ----------------------------------|
D| ----------------------------------|

Repeat Verse:

G| ------------------------------------------------------------|
D| -1-1-1----3----0------------------------------------1-1-1---|
A| -----------------------0h3-3-3-3-3h5-5-5-5-5----------------|
D| ------------------------------------------------------------|

G| ---------------0h1-1-1-1---1h2-2-2-2-2--|
D| -3----0---------------------------------|
A| ----------------------------------------|
D| ----------------------------------------|


Outtro:

G| -----------------------------|
D| -----------------------------|
A| -----------------------------|
D| -0--0-1h2h1--0-0-0-1h2-1-----|

Questions, comments, corrections?  Feel free to email me at RAT375@aol.com
Comments