Boy Sets Fire - After The Eulogy Chords & Tabs

 

After The Eulogy Chords & Tabs

Boy Sets Fire Chords & Tabs

Version: 1 Type: Bass Tab 0 ratings
1 star 2 stars 3 stars 4 stars 5 stars
comments

After The Eulogy Bass Tab

   
AFTER THE EULOGY - Boy Sets Fire

TAB: v (ZServo@aol.com)

**Drop D Tuning**

^  = Hammer On/Pull Off
*  = Ring Out

INTRO:
G|----------------------------------------------|
D|----------------------------------------------|
A|------0^5^6------0^5^6------0^5^6------0^5^6--|
D|--0-0--------0-0--------0-0--------0-0--------|

VERSE:
G|----------------------------------------------|
D|----------------------------------------------|
A|------0^5^6------0^5^6------0^5^6-------------|
D|--0-0--------0-0--------0-0--------0-4-5-6----|

CHORUS:
G|--------------------------------------|
D|-----------------5-----------------5--|
A|----5^7------5^7------5^7------5^7----|
D|--0-----8--0--------0-----8--0--------|
[ Tab from: http://www.guitartabs.cc/tabs/b/boy_sets_fire/after_the_eulogy_btab.html ]
POST CHORUS:
G|--------------------------------------------|
D|--------------------------------------------|
A|------0^5^6------0^5^6------0^5^6--------6--|
D|--0-0--------0-0--------0-0--------0-0-0----|

BRIDGE A:
G|----------------------------|
D|--------8-7-5--------8-7-5--|
A|----5^7----------5^7--------|
D|--0------------0------------|

BRIDGE B:
G|---------|
D|---------|
A|---------|
D|--0---0--|
    *

OUTRO:
G|------------------------------------------|
D|------------------------------------------|
A|------------------------------------------|
D|--0-0--0-0--0-0--0-0--0-0--0-0--0-0--0-0--|

INTRO    (2X)
VERSE    (4X)
CHORUS   (1X)
P CHORUS (1X)
VERSE    (4X)
CHORUS   (8X)
BRIDGE A (4X)
BRIDGE B (4X)
OUTRO   (FADES)

HYDLIDE - NJ PUNK:
http://hydlide.cjb.net
Comments