Boy Kill Boy - Back Again Chords & Tabs

 

Back Again Chords & Tabs

Boy Kill Boy Chords & Tabs

Version: 1 Type: Tab

Back Again Tab

'ello there. Right, this tabs got a tremolo for the verse. Rest is normal. Email
with corrections. Listen to the song for some of the rhythms.

Tuning: Standard

Intro:

e|---------------------------------------------------------------------------|
B|---------------------------------------------------------------------------|
G|-----------2-2-------------2-2-------------2-2-------------2---------------|
D|-------0-0-------------0-0-------------0-0-------------0-0-----------------|
A|---2-2---------0-0-2-2---------0-0-2-2---------0-0-2-2-------0-------------|
E|---------------------------------------------------------------------------|

Verse (tremolo on, take it off for the power chords):

e|---------------------------------------------------------------------------|
B|---------10------------10--------------------------------------------------|
G|---4-6-7----11---4-6-7----11-----------------------------------------------|
D|---------------------------------555555552222222255555555522222222---------|
A|---------------------------------555555552222222255555555522222222---------|
E|---------------------------------333333330000000033333333300000000---------|

e|-----------------------------10----10----10------7---7---7-10----10----10----10--|
B|---------10------------10-------10----10----10-8---8---8------10----10----10-----|
G|---4-6-7----11---4-6-7----11-----------------------------------------------------|
D|---------------------------------------------------------------------------------|
A|---------------------------------------------------------------------------------|
E|---------------------------------------------------------------------------------|
[ Tab from: http://www.guitartabs.cc/tabs/b/boy_kill_boy/back_again_tab.html ]
e|-----7---7---7-------------------------------------------------------------|
B|---8---8---8---------------------------------------------------------------|
G|-----------------------2-2-------------2-2-------------2-2-------------2---|
D|-------------------0-0-------------0-0-------------0-0-------------0-0-----|
A|---------------2-2---------0-0-2-2---------0-0-2-2---------0-0-2-2-----0---|
E|---------------------------------------------------------------------------|

Chorus (x2):

e|---------------------------------------------------------------------------|
B|---------------------------------------------------------------------------|
G|---------------------------------------------------------------------------|
D|---9999999999999999444444444444444455555555555555559999999988888888--------|
A|---9999999999999999444444444444444455555555555555559999999988888888--------|
E|---7777777777777777222222222222222233333333333333337777777766666666--------|

Bridge:

e|---------------------------------------------------------------------------|
B|---------------------------------------------------------------------------|
G|---------------------------------------------------------------------------|
D|---77777777555555557777777755555555----------------------------------------|
A|---77777777555555557777777755555555----------------------------------------|
E|---55555555333333335555555533333333----------------------------------------|

Intro
Verse
Chorus (x2)
Bridge

Middle 8:

e|-----------------------------------------------------------------------------|
B|---10----10----10----8---7---5---5---5---7---7---7----------/----------------|
G|------11----11----11---9---7---6---6---7---7---7-----------/---4-------------|
D|-----------------------------------------------------------/---4-------------|
A|----------------------------------------------------------/------------------|
E|-----------------------------------------------------------------------------|

e|---------------------------------------------------------------------------|
B|---------------------------------------------------------------------------|
G|---7777--------------------------------------------------------------------|
D|---7777-LOTS-OF-TIMES------------------------------------------------------|
A|---5555--------------------------------------------------------------------|
E|---------------------------------------------------------------------------|

Chorus (Staccato power chords on the 7th fret, 1st time. Listen to the song so you can 
(x2)
Bridge
Intro (x2)

That's all, cheers, email me with any corrections/suggestions.