Boy Kicks Girl - Karma Chords & Tabs

 

Karma Chords & Tabs

Boy Kicks Girl Chords & Tabs

Version: 1 Type: Tab 0 ratings
1 star 2 stars 3 stars 4 stars 5 stars
comments

Karma Tab

Song : Karma
Band : Boy Kicks Girl (band from u.s)
Tabbed By : Diamond Jerry (Raptureboy182@yahoo.com)

Standard Tuning  

------------------------------------------------------------------------------
[Intro]
e|-----------------------------------------|-------|
B|-----------------------------------------|-------|
G|-----------------------------------------|--6~---|
D|---77777---44444---22222---44444----(2x)-|--6~---|
A|---77777---44444---22222---44444---------|--4~---|
E|---55555---22222---00000---22222---------|-------|

(little riff)
e|---------------------------------------------------------------------------|
B|---------------------------------------------------------------------------|
G|---------------------------------------------------------------------------|
D|---9--7-6-------9--7-6-------9--7-6-------9--7-6---------------------------|
A|-----------7------------7------------7------------7-----(2x)---------------|
E|---------------------------------------------------------------------------|

[ Tab from: http://www.guitartabs.cc/tabs/b/boy_kicks_girl/karma_tab.html ]
[Verse]
e|-----|---|-----------------------------------------------------------------------|
B|-----|---|-----------------------------------------------------------------------|
G|--6~-|-/-|-666666----------444444------------666666-----------------444444-------|
D|--6~-|-/-|-666666--777777--444444--444444----666666--777777--22222--444444--(2x)-|
A|--4~-|-/-|-444444--777777--222222--444444----444444--777777--22222--222222-------|
E|-----|---|---------555555----------222222------------555555--00000---------------|


[Chorus]
e|-----------------------------------------------------------------------|----|
B|-----------------------------------------------------------------------|----|
G|--------------------------------------------------------^^^^^----------|-6~-|
D|---77777---44444---22222---44444--(3x)--22222---44444---66666--777-999-|-6~-|
A|---77777---44444---22222---44444--------22222---44444---66666--777-999-|-4~-|
E|---55555---22222---00000---22222--------00000---22222---44444--555-777-|----|


-repeat verse & chorus-


[Interlude]
e|------------------------------------------------------------------------|
B|-----^^^^^^------------------^^^^^^-------------------------------------|
G|--6~-666666------^^^^^^---4~-444444------^^^^^^-------------------------|
D|--6~-666666---7~-777777---4~-444444---4~-444444----(4x)-----------------|
A|--4~-444444---7~-777777---2~-222222---4~-444444-------------------------|
E|--------------5~-555555---------------2~-244444-------------------------|

[solo] - play the riff -

-repeat chorus- play along the riff

End on C#

------------------------------------------------------------------------------
Any comments or corrections,just mail me to Raptureboy182@yahoo.com/ICQ #115343571
Comments