Boy Hits Car - I Am A Cloud Chords & Tabs

 

I Am A Cloud Chords & Tabs

Boy Hits Car Chords & Tabs

Version: 1 Type: Tab 0 ratings
1 star 2 stars 3 stars 4 stars 5 stars
comments

I Am A Cloud Tab

Song: I Am A Cloud 
Artist: Boy Hits Car 
Album: Boy Hits Car 
Tabbed By: Mit

Dropped D Tuning 

  Intro: 
e:------------------------- 
B:------------------------- 
G:------------------------- 
D:-----------5h7----------- x8 
A:------3----------3----3-- 
D:--0-0---00-----0---00---- 
    \ mute /     \mute/ 

  Intro continued: (delay) 
e:--2-----5p3---0-------- 
B:--3-----3-----3-----3-- 
G:--2-----2-----2-----2-- 
D:--0-----0-----0-----0-- 
A:----------------------- 
D:----------------------- 

  Chorus/Main Riff: 
e:-----------3-h-5------------ 
B:----------(3)h(5)----------- 
G:------5-------------5----5-- 
D:--0-0-5-00--------0-5-00-5-- 
A:--0-0-3-00--------0-3-00-3-- 
D:--0-0---00--------0---00---- 
[ Tab from: http://www.guitartabs.cc/tabs/b/boy_hits_car/i_am_a_cloud_tab.html ]
  Verse: 
e:----------------------------------------------------------- 
B:----------------------------------------------------------- 
G:----------------------------------------------------------- 
D:--0-0---------0-0--------------------------------- 
A:--0-0---------0-0--------------------------------- 
D:--0-0---------0-0------------------------ 

  continued 
e:----------------------------------------------- 
B:----------------------------------------------- 
G:----------------------------------------------- 
D:--0-0-xxxxxxx-0-0-xxxxxxx-0-0---0---0-xxxxxxx-- 
A:--0-0-xxxxxxx-0-0-xxxxxxx-0-0---0---0-xxxxxxx-- 
D:--0-0-xxxxxxx-0-0-xxxxxxx-0-0---0---0-xxxxxxx-- 

  Pre-Chorus: 
e:----2----3----2----3----2h3-- 
B:----------------------------- 
G:------22---22---22---22------ 
D:--0-------------------------- 
A:--0-------------------------- 
D:--0-------------------------- 

  2nd Pre-Chorus: 
e:----------------------------2h3-- 
B:--------------------------------- 
G:--------------------------------- 
D:--0------------------------------ 
A:--0-2p0---3p0---2p0---3p0-------- 
D:--0-----0-----0-----0-----0------
Comments