Boy Hits Car - Benkei Chords & Tabs

 

Benkei Chords & Tabs

Boy Hits Car Chords & Tabs

Version: 1 Type: Bass Tab 0 ratings
1 star 2 stars 3 stars 4 stars 5 stars
comments

Benkei Bass Tab

I near enough all u have to do is figure out the order. sorted.

G|------------11---11-----11--------14-14-14-----|
D|-12-12-12------------12-----12-----------------|
A|-----------------------------------------------|
D|-----------------------------------------------|

G|--------------------------------------|
D|--------------------------------------|
A|--------------------3--0-3-0--3----5--|
D|--0---0-0-3---0-----------------------|
[ Tab from: http://www.guitartabs.cc/tabs/b/boy_hits_car/benkei_btab.html ]
G|----------------------------------|
D|----------------------------------|
A|-----------------3—0h3p0---0h3p0--|
D|--0--0-0-3--0---------------------|

G|--------------------|-----------------------------|
D|--------------------|-----------------------------|
A|------------------5-|-----------------5-------5---|
D|-3-0-3-0-3-0-3-0-0--|----3-0-3-0-3----------------|

G|-----------------------------------|
D|-----------------------------------|
A|-----------------------------------|
D|--0--0--0-3--0-3---0--0--0-3--0-3--|
Comments