Boxcar Racer - Watch The World Chords & Tabs

 

Watch The World Chords & Tabs

Boxcar Racer Chords & Tabs

Version: 3 Type: Tab 0 ratings
1 star 2 stars 3 stars 4 stars 5 stars
comments

Watch The World Tab

Artist: Boxcar Racer
Song: Watch the World
Album: Boxcar Racer

As you can see, i've set up this tab for two guitars since it sounds boring with one guitar

Intro (play 2x)
  Guitar 1
e|-------------------|-------------------|-----------------|---------|
B|-------------------|-------------------|-----------------|---------|
G|-4-4-4-4-4-4-4-4/6-|-4-4-4-4-4-4-4-4/6-|-4-4-4-4-4-4-4-4-|-8-8-4-3-|
D|-x-x-x-x-x-x-x-x/x-|-x-x-x-x-x-x-x-x/x-|-x-x-x-x-x-x-x-x-|-x-x-x-x-|
A|-2-2-2-2-2-2-2-2/4-|-2-2-2-2-2-2-2-2/4-|-2-2-2-2-2-2-2-2-|-6-6-2-1-|
E|-------------------|-------------------|-----------------|---------|
 |								     |
 |Guitar 2							     |
e|-------------------|-------------------|-----------------|---------|
B|-------------------|-------------------|-----------------|---------|
G|-------------------|-------------------|-----------------|---------|
D|-6-6-6-6-6-6-6-6-6-|-4-4-4-4-4-4-4-4-4-|-2-2-2-2-2-2-2-2-|--REST---|
A|-6-6-6-6-6-6-6-6-6-|-4-4-4-4-4-4-4-4-4-|-2-2-2-2-2-2-2-2-|---------|
E|-4-4-4-4-4-4-4-4-4-|-2-2-2-2-2-2-2-2-2-|-0-0-0-0-0-0-0-0-|---------|

Verse (Play 4x)
 Guitar 1
e|-------------------|-------------------|
B|-----7-------7-----|-----7-------7-----|
G|-4-------4---------|-4-------4---------|
D|-------------------|-------------------|
A|-------------------|-------------------|
E|-------------------|-------------------|
 |		          		 |
 |Guitar 2			         |
e|-------------------|-------------------|
B|-------------------|-------------------|
G|-------------------|-------------------|
D|-------------------|-------------------|
A|-2-2-2-------------|-------------------|
E|---------2-2-2-----|-4-4-4---0-0-0-----|
[ Tab from: http://www.guitartabs.cc/tabs/b/boxcar_racer/watch_the_world_tab_ver_3.html ]
Chorus
 Guitar 1
e|-----------------|-----------------|-----------------|-----------------|
B|-----------------|-----------------|-----------------|-----------------|
G|-4-4-4-4-4-4-4-4-|-4-4-4-4-4-4-4-4-|-4-4-4-4-4-4-4-4-|-4-4-4-4-4-4-4-4-|
D|-x-x-x-x-x-x-x-x-|-x-x-x-x-x-x-x-x-|-x-x-x-x-x-x-x-x-|-x-x-x-x-x-x-x-x-|
A|-2-2-2-2-2-2-2-2-|-2-2-2-2-2-2-2-2-|-2-2-2-2-2-2-2-2-|-2-2-2-2-2-2-2-2-|
E|-----------------|-----------------|-----------------|-----------------|
 |								         |
 |Guitar 2							         |
e|-----------------|-----------------|-----------------|-----------------|
B|-----------------|-----------------|-----------------|-----------------|
G|-----------------|-----------------|-----------------|-----------------|
D|-----R-E-S-T-----|-6-6-6-6-6-6-6-6-|-4-4-4-4-4-4-4-4-|-2-2-2-2-2-2-2-2-|
A|-----------------|-6-6-6-6-6-6-6-6-|-4-4-4-4-4-4-4-4-|-2-2-2-2-2-2-2-2-|
E|-----------------|-4-4-4-4-4-4-4-4-|-2-2-2-2-2-2-2-2-|-0-0-0-0-0-0-0-0-|

Interlude Pt. 1 2x
 Guitar 1
e|-----------------|-------------------|
B|-----------------|-------------------|
G|-------------8-8-|-------------------|
D|-9-9-9-9-9-6-8-8-|-----R-E-S-T-------|
A|-9-9-9-9-9-6-6-6-|-------------------|
E|-7-7-7-7-7-4-----|-------------------|
 |		          	       |
 |Guitar 2			       |
e|-----------------|-------------------|
B|-----------------|-------------------|
G|-----------------|-9-9-9-9-9-9-9-9---|
D|----R-E-S-T------|-9-9-9-9-9-9-9-9---|
A|-----------------|-7-7-7-7-7-7-7-7---|
E|-----------------|-------------------|

Interlude Pt. 2
 Guitar 1
e|-----------------|-----------------|
B|-----------------|-----------------|
G|-4----4--6--4----|-4----4--6--4----|
D|----4----------4-|----4---------4--|
A|-----------------|-----------------|
E|-----------------|-----------------|
 |		          	     |
 |Guitar 2			     |
e|-----------------|-----------------|
B|-----------------|-----------------|
G|-4-4-4-4-4-4-4-4-|-9-9-9-9-9-9-9-9-|
D|-x-x-x-x-x-x-x-x-|-x-x-x-x-x-x-x-x-|
A|-2-2-2-2-2-2-2-2-|-7-7-7-7-7-7-7-7-|
E|-----------------|-----------------|

The outro to the songs is basically a mix of parts above. im not too sure about the last chord used the the chorus by guitar 2, but it sounds good to me.


Comments