Boxcar Racer - Tiny Voices Chords & Tabs

 

Tiny Voices Chords & Tabs

Boxcar Racer Chords & Tabs

Version: 2 Type: Tab 0 ratings
1 star 2 stars 3 stars 4 stars 5 stars
comments

Tiny Voices Tab

tiny voices(correct)
box car racer

intro
E|------------------------------------------------------|
B|---------------9-9------------------------------------|
G|---------------x-x--7-7-7-7//6-6----------------------|
D|-2-------------6-6--7-7-7-7//6-6----------------------|
A|-0-(0-0-0-0-0)------5-5-5-5//4-4----------------------|
E|------------------------------------------------------|
(PALM MUTE)    /=slide

verse
E|-----------------------------------------|
B|-----------------------------------------|
G|-----------------------------------------|
D|--7777777777777777-----------------------|
A|--0000000000000000-----------------------|
E|-----------------------------------------|
i dont no exactly how many times he strums it
but you can figure it out
[ Tab from: http://www.guitartabs.cc/tabs/b/boxcar_racer/tiny_voices_tab_ver_2.html ]
chorus
E|------------------------------------------------------------------------------|
B|------------------------------------------------------------------------------|
G|--------------8-8-8-----------------------------------------------------------|
D|-2-2-2-2-2-2--x-x-x--2-2-2-2-2-2---6-6-6-6-6-6-6-6--7-7-7-7-7-7-7-7-----------|
A|-2-2-2-2-2-2--6-6-6--2-2-2-2-2-2---7-7-7-7-7-7-7-7--7-7-7-7-7-7-7-7-----------|
E|-0-0-0-0-0-0---------0-0-0-0-0-0---4-4-4-4-4-4-4-4--5-5-5-5-5-5-5-5-----------|

interlude
E|----------------------------|
B|----------------------------|
G|----------------------------|
D|-----2-----2----------------|
A|---0-----0-----0------------|
E|-0-----0-----0--------------|
do twice....then...

E|----------------------------|
B|----------------------------|
G|----------------------------|
D|-----4-----4----------------|
A|---2-----2-----2------------|
E|-0-----0-----0--------------|

E|------------------------------------------------------|
B|------------------------------------------------------|
G|------------------------------------------------------|
D|------------------------------------------------------|
A|---------------------------0--------------------------|
E|-0------------4--------------------------5------------|
Comments