Boxcar Racer - There Is Chords & Tabs

 

There Is Chords & Tabs

Boxcar Racer Chords & Tabs

Version: 2 Type: Tab 0 ratings
1 star 2 stars 3 stars 4 stars 5 stars
comments

There Is Tab

Boxcar Racer
There is 
By Jason Sawicki
I’m sure this is 100% correct, hope you think so too have fun!!! 



Verse 1 
This vacation is useless, These white pills aren’t kind   
E|------------------------------------------------------------------------------------
B|------------------------------------------------------------------------------------
G|-8-8-8-8-8-8-8-8----6-6-6-6-6-6-6-6----4-4-4-4-4-4-4-4----6-6-6-6-6-----------------                 
D|-x-x-x-x-x-x-x-x----x-x-x-x-x-x-x-x----x-x-x-x-x-x-x-x----x-x-x-x-x----8-8-8-8-8----
A|-6-6-6-6-6-6-6-6----4-4-4-4-4-4-4-4----2-2-2-2-2-2-2-2----4-4-4-4-4----x-x-x-x-x----
E|-----------------------------------------------------------------------6-6-6-6-6----
Use up and down strokes
[ Tab from: http://www.guitartabs.cc/tabs/b/boxcar_racer/there_is_tab_ver_2.html ]
Chorus 
Do you care if I don’t know what to say will you sleep tonight will you think of me
E|----------------------------------------------------------------------------
B|----------------------------------------------------------------------------
G|-8-8-8-8-8-8-8-8----6-6-6-6-6-6-6-6----9-9-9-9-9-9-9-9----6-6-6-6-6-6-6-6---
D|-x-x-x-x-x-x-x-x----x-x-x-x-x-x-x-x----x-x-x-x-x-x-x-x----x-x-x-x-x-x-x-x---
A|-6-6-6-6-6-6-6-6----4-4-4-4-4-4-4-4----7-7-7-7-7-7-7-7----4-4-4-4-4-4-4-4---
E|----------------------------------------------------------------------------
Again use up and down strokes

Ps Blink 182, Boxcar Racer, New Found Golry, Green Day, Finch, The Starting Line
Alkaline Trio, 71 Gaps, Offspring, Less Than Jake, Saves The Day
ALL RULE!!!!!!!!!!!!!!!!!!!!!!!!!!!!!!!!!!!!!!!!!!!!!!!!!!!!!!!!!!!!!!!!!!!!!!!!!     
Comments