Boxcar Racer - There Is Chords & Tabs

 

There Is Chords & Tabs

Boxcar Racer Chords & Tabs

Version: 1 Type: Tab 2 ratings
1 star 2 stars 3 stars 4 stars 5 stars
comments

There Is Tab

Intro/Verse
e----------------------------
b----------------------------
g---8--6--4--6--3------------
d---8--6--4--6--3------------
a---6--4--2--4--1------------
e----------------------------
[ Tab from: http://www.guitartabs.cc/tabs/b/boxcar_racer/there_is_tab.html ]
Chorus 
e----------------------------
b----------------------------
g---8--9--4--6---------------
d---8--9--4--6---------------
a---6--7--2--4---------------
e----------------------------

Bridge
e----------------------------
b----------------------------
g---8--9--4--9---------------
d---8--9--4--9---------------
a---6--7--2--7---------------
e----------------------------

Note: Strum Each Chord, Listen to the song to get the beat
Comments