Boxcar Racer - My First Punk Song Chords & Tabs

 

My First Punk Song Chords & Tabs

Boxcar Racer Chords & Tabs

Version: 2 Type: Tab 0 ratings
1 star 2 stars 3 stars 4 stars 5 stars
comments

My First Punk Song Tab

MY FIRST PUNK SONG
BOX CAR RACER

E|-----------------------------|
B|-----------------------------|
G|----------------6-6--6----7--|
D|-7-7--7-7-7-----6-6--6-6--7--|
A|-7-7--7-7-7-----4-4--4-6--5--|
E|-5-5--5-5-5--0--4-4--4-4-----|

E|-----------------------------|
B|-----------------------------|
G|---------------7-7--7-----7--|
D|-2-2--2-2-2----7-7--7--7--7--|
A|-2-2--2-2-2----5-5--5--7--5--|
E|-0-0--0-0-0-0----------5-----|
[ Tab from: http://www.guitartabs.cc/tabs/b/boxcar_racer/my_first_punk_song_tab_ver_2.html ]
E|---------------------------------------------------------------|
B|---------------------------------------------------------------|
G|-999999999999999999999999999999999999999999999999999999999999--|
D|-xxxxxxxxxxxxxxxxxxxxxxxxxxxxxxxxxxxxxxxxxxxxxxxxxxxxxxxxxxxx--|
A|-777777777777777777777777777777777777777777777777777777777777--|
E|-000000000000000000000000000000000000000000000000000000000000--|

end on
E|----|
B|----|
G|----|
D|-7--|
A|-7--|
E|-5--|
Comments