Boxcar Racer - Letters To God Chords & Tabs

 

Letters To God Chords & Tabs

Boxcar Racer Chords & Tabs

Version: 6 Type: Tab 0 ratings
1 star 2 stars 3 stars 4 stars 5 stars
comments

Letters To God Tab

   
Artist: Boxcar Racer
Song: Letters To God

Tabbed by: J. Gonzalez

This is my first tab, so if there are any corrections e-mail me at ragingduck@mindspring.com.
This is a great song, by the way, and pretty easy to play.

Legend:
/ slide up
X muted string


Part A:

Intro/Verse

"Caught off guard.."
E---------------
B---------------
G--9--9/11--12--
D--9--9/11--12--
A--7--7/9---10--
E---------------
"...just one lifetime."

Chorus
[ Tab from: http://www.guitartabs.cc/tabs/b/boxcar_racer/letters_to_god_tab_ver_6.html ]
"...and I..."
---------------------------------------
---------------------------------------
--9---12---7---5-----9---12---14---12--
--9---12---7---5-----9---12---14---12--
--7---10---5---3-----7---10---12---10--
---------------------------------------
"...maybe I don't want to go."


Verse


Chorus


Bridge (I haven't tabbed it yet, but e-mail me if you have figured it out)



Part B:
(Distortion)
Verse

----------------
----------------
----------------
--2---------5---
--2---------5---
--0---0-2---3---

Chorus
"...and I..."
--X---X---X---X------X---X---X---X---
--X---X---X---X------X---X---X---X---
--X---X---7---5------X---X---X---X---
--2---5---7---5------2---5---7---5---
--2---5---5---3------2---5---7---5---
--0---3---X---X------0---3---5---3---
"...maybe I don't wan't to go."

(let ring)

--X--
--X--
--X--
--2--
--2--
--0--
Comments