Boxcar Racer - I Feel So Chords & Tabs

 

I Feel So Chords & Tabs

Boxcar Racer Chords & Tabs

Version: 7 Type: Tab 0 ratings
1 star 2 stars 3 stars 4 stars 5 stars
comments

I Feel So Tab

This is the first song from box car racers first cd. 
Its a cool song and super easy to play.
If theres any mistakes e-mail me at
cnouak@hotmail.com
enjoy....



Intro(piano is played at begging for 16secs)
e|----------------|
B|----------------|
G|-----------------------------(bass line)-----------------------------------|
D|--5~~~---------------------------------------------------------------------|
A|--5~~~-------------------55----------55----------55----------55------------|
E|--3~~~----------33333333----33333333----33333333----33333333---------------|

bass continues to play the line above twice while the guitar plays this
e|---------------------------------------------------------------------------|
B|---------------------------------------------------------------------------|
G|--1212121212121212121212121212121212121212---------------------------------|
D|---x-x-x-x-x-x-x-x-x-x-x-x-x-x-x-x-x-x-x-x------------(bass lines plays 2times)
A|--1010101010101010101010101010101010101010----------------55----------55---|
E|--------------------------------------------3~~~-33333333----33333333------|

guitar enters in along with the bass playing this 4 times
e|---------------------------------------------------------------------------|
B|------------------(w/heavy distortion)-------------------------------------|
G|-----------77----------77----------77----------77--------------------------|
D|--55555555-77-55555555-77-55555555-77-55555555-77--------------------------|
A|--55555555-55-55555555-55-55555555-55-55555555-55--------------------------|
E|--33333333----33333333----33333333----33333333-----------------------------|
    stops here and only tom and the first guitar can be heard

Verse
e|---------------------------------------------------------------------------|
B|---------------------------------------------------------------------------|
G|----4------4------4----4---------------------------------------------------|
D|--5---5-44---4-22---44---4-keep playing------------------------------------|
A|---------------------------------------------------------------------------|
E|---------------------------------------------------------------------------|
[ Tab from: http://www.guitartabs.cc/tabs/b/boxcar_racer/i_feel_so_tab_ver_7.html ]
After the line "I wish I could feel no pain" the second guitar and bass comes 
in playing this over the riff tom is playing.
e|---------------------------------------------------------------------------|
B|---------------------------------------------------------------------------|
G|---------------------------------------------------------------------------|
D|-----(bass)----------(2nd guitar)-------------------------------------=----|
A|-------------with--55-44-22-44----x2---------------------------------------|
E|--33-22-00-22------33-22-00-22---------------------------------------------|
                 p.m.-----------
Chorus
e|-000000000-----------------------------------------------------------------|
B|-000000000-----------------------------------------------------------------|
G|-xxxxxxxxx-----------666666666-------------play twice----------------------|
D|-222222222-999999999-666666666-999999999-----------------------------------|
A|-222222222-999999999-444444444-999999999-----------------------------------|
E|-000000000-777777777-----------777777777-----------------------------------|


e|---------------------------------------------------------------------------|
B|------------------(w/heavy distortion)-------------------------------------|
G|-----------77----------77----------77----------77--------------------------|
D|--55555555-77-55555555-77-55555555-77-55555555-77--------------------------|
A|--55555555-55-55555555-55-55555555-55-55555555-55--------------------------|
E|--33333333----33333333----33333333----33333333-----------------------------|

then play second verse
bridge
The bass is played with the same riff as above after the single g is held by
the guitar, then this
e|---------------------------------------------------------------------------|
B|---------------------------------------------------------------------------|
G|----------------7777----------7777----------7777----------7777-------------|
D|-------55555555-xxxx-55555555-xxxx-55555555-xxxx-55555555-xxxx-------------|
A|-------55555555-5555-55555555-5555-55555555-5555-55555555-5555-------------|
E|--3~~~-33333333------33333333------33333333------33333333------------------|
     p.m.--------      --------      --------      --------

the cool bit
e|---------------------------------------------------------------------------|
B|---------------------------------------------------------------------------|
G|--4444444444444-4444444444444-44444444444444444444-------------------------|
D|--xxxxxxxxxxxxx-xxxxxxxxxxxxx-xxxxxxxxxxxxxxxxxxxx-----then----------------|
A|--2222222222222-2222222222222-22222222222222222222-----into chorus x 2-----|
E|---------------------------------------------------------------------------|

easy. have fun

Comments