Boxcar Racer - I Feel So Chords & Tabs

 

I Feel So Chords & Tabs

Boxcar Racer Chords & Tabs

Version: 1 Type: Tab 0 ratings
1 star 2 stars 3 stars 4 stars 5 stars
comments

I Feel So Tab

   
Boxcar Racer
I Feel So

Intro1
e|-----------------|
b|-----------------|
g|-----------------|
d|-----------------|
a|-----------------|
E|--4s3------------|

    

e|-----------------|
b|-----------------|
g|-----------------|
d|-----------------|
a|--------------5-5| 
E|--4s3-3-4s3-3----|

Do this while the bass is doing the intro
Pretty much listen to the song and play along with the bass, just 
thicken it up

Then

Intro2
e|-----------|
b|-----------|
g|-----------|
d|-5555555555|
a|-XXXXXXXXXX|
E|-3333333333|
Or however many times this is done

Once Tom says "Let's Go", do this

e|-------------------|
b|-------------------|.
g|--------------777--|
d|--6s5-5-6s5-5-777--|    4 Times  
a|--6s5-5-6s5-5-555--|.
E|--4s3-3-4s3-3------|
[ Tab from: http://www.guitartabs.cc/tabs/b/boxcar_racer/i_feel_so_tab.html ]
Verse
guitar one
e|-----------------|
b|-----------------|
g|----4---4---4---4|
d|--5---4-4-2---4-4|   4 Times
a|-----------------|
E|-----------------|
Guitar two(comes in after two of guitar one parts)
e|---------------|
b|---------------|
g|---------------|
d|--55-44---22-44| 2 Times
a|--55-44---22-44|
E|--33-22---00-22|

Chorus
(i feel so mad...)
e|-------------------------------------|
b|-------------------------------------|
g|--99999999-99999999-66666666-99999999|
d|--99999999-99999999-66666666-99999999| 2 Times
a|--77777777-66666666-44444444-66666666|
E|-------------------------------------|

Solo? Thing

e|---------|
b|---------|
g|-44444444|
d|-XXXXXXXX|  A whole bunch of times
a|-22222222|  (just listen, and you will pick it up)
E|---------|

Song Order
Bass Intro + intro1
Intro2
Verse
Chorus
(interlude/bridge)intro part2
Verse
Chorus
Break(intro thing again)
Solo thing?
Chorus (Twice)

Ending

Guitar1
e|----
b|----
g|----
d|--2-\
a|--2- Let ring
E|--0-/

     

Guitar2
e|----
b|----
g|--9-\
d|--9- Let ring
a|--7-/
E|----

Keep in mind that this is my first ever
Any comments and/or corrections Please Direct them to
Alistair_Hill83@Hotmail.com
Thank you for taking time to try and follow along
I just want to thank Eric Bergevin for helping to inspire me to play
this instrument and for being a good friend. 

Enjoy
Comments