Boxcar Racer - I Feel So Chords & Tabs

 

I Feel So Chords & Tabs

Boxcar Racer Chords & Tabs

Version: 1 Type: Bass Tab 0 ratings
1 star 2 stars 3 stars 4 stars 5 stars
comments

I Feel So Bass Tab

   
Artist: Boxcar Racer
Album: Boxcar Racer
Song: I Feel So (Full Version)

The other tabs sounded wrong on a few parts, so hopefully this will help. It sounds right 
to me, anyways. This tab coresponds with my guitar version of this song.

RIFF A

G------------------I
D------------------I
A-------------5555-I
E-0h333-0h333------I

RIFF B

G-------------I
D-------------I
A-------------I
E-33-22-00-22-I

RIFF C

G--------------------------------------------------I
D--------------------------------------------------I
A-------------2-22222222224-44444444442-2222222222-I
E-0-0000000000-------------------------------------I

RIFF D
[ Tab from: http://www.guitartabs.cc/tabs/b/boxcar_racer/i_feel_so_btab.html ]
G---------------------------I
D---------------------------I
A-------------55~~~~~~~~~~~~I
E-0h333-0h333---------------I

ORDER
Intro- 	(Piano, followed by guitar)
	RIFF A x19
	RIDD D x1
	RIFF A x4
Verse-	(Guitar)
	RIFF B x2
Chorus- RIFF C x2
Inter.- RIFF A x4
Verse-  (Guitar)
	RIFF B x2
Chorus- RIFF C x2
Bridge- RIFF A x16
	(Guitar + drums)
Chorus- RIFF C x4
END ON E OPEN

This should be close to right. I'm not going to say it's 100%, but it's 99.9%! If you have 
questions about the timing, listen to the CD or e-mail me. If you want to play a shorter 
(radio) version, don't play the intro and bridge riffs as many times. Have fun!
Comments