Boxcar Racer - Cat Like Thief Chords & Tabs

 

Cat Like Thief Chords & Tabs

Boxcar Racer Chords & Tabs

Version: 5 Type: Tab 0 ratings
1 star 2 stars 3 stars 4 stars 5 stars
comments

Cat Like Thief Tab

by Garrett Rennie
Artist: Boxcar Racer
Song: Cat Like Thief

Repeat throught the whole song

Guitar one:

  -----------------------------------------------
  -----------------------------------------------
  2-2-2-2-2-2-2-2-2-2-2-2-2-2-2-2-2-2-2-2-2-2-2-2
  2-2-2-2-2-2-2-2-2-2-2-2-2-2-2-2-2-2-2-2-2-2-2-2
  0-0-0-0-0-0-0-0-0-0-0-0-0-0-0-0-0-0-0-0-0-0-0-0
  -----------------------------------------------
  
Repeat tthrough the whole song 
[ Tab from: http://www.guitartabs.cc/tabs/b/boxcar_racer/cat_like_thief_tab_ver_5.html ]
Guitar two: 
  -----------------------------------------------
  -----------------------------------------------
  -----------------------------------------------
  ----7-----7-----7-----7-----7-----7-----7-----7
  0-0---0-0---4-4---4-4---5-5---5-5---5-5---5-5--
  -----------------------------------------------

Continue from where the outro starts until the end of the song

Outro solo:

  ------12------12---9----9----9-----
  10-10---10-10--------10---10---10--
  -----------------------------------
  -----------------------------------
  -----------------------------------
  -----------------------------------


Shout outs to my band BFG, rock on forever pennock and rim rimma
Comments