Boxcar Racer - And I Chords & Tabs

 

And I Chords & Tabs

Boxcar Racer Chords & Tabs

Version: 3 Type: Tab 0 ratings
1 star 2 stars 3 stars 4 stars 5 stars
comments

And I Tab

   
Artist: Boxcar Racer
Song: And I
Album: Boxcar Racer

Intro (Play 6x)
e|---------------------------------------------
B|---------------------------------------------
G|-11-11-11-11-11-11-11-11--7-7--9-9-9-9--7-7--
D|--x--x--x--x--x--x--x--x--x-x--x-x-x-x--x-x--
A|--9--9--9--9--9--9--9--9--5-5--7-7-7-7--5-5--
E|---------------------------------------------

e|-------------------
B|-------------------
G|-11-11-11-11--7-7--
D|--x--x--x--x--x-x--
A|--9--9--9--9--5-5--
E|-------------------

Bridge  		
Guitar 1		Guitar 2 (Play 2x)
e|--------              e|------------------
B|--------	        B|------------------
G|-7------              G|-7-7-7-7-7-7-7-7--
D|-x-hold- 		D|-x-x-x-x-x-x-x-x--
A|-5------  		A|-5-5-5-5-5-5-5-5--
E|--------		E|------------------	


Verse Play throughout
e|------------------
B|------------------
G|-7-7-7-7-7-7-7-7--
D|-x-x-x-x-x-x-x-x--
A|-5-5-5-5-5-5-5-5--
E|------------------
[ Tab from: http://www.guitartabs.cc/tabs/b/boxcar_racer/and_i_tab_ver_3.html ]
Chorus 
e|-------------------------------------
B|-------------------------------------
G|-7-7-7-7-11-11-11-11-----------------
D|-7-7-7-7--x--x--x--x-9-9-9-9-5-5-5-5-
A|-5-5-5-5--9--9--9--9-9-9-9-9-5-5-5-5-
E|---------------------7-7-7-7-3-3-3-3-
   And I.......
e|---------------------------------
B|---------------------------------
G|-7-7-7-7-7-7-7-7-----------------
D|-7-7-7-7-7-7-7-7-9-9-9-9-5-5-5-5-
A|-5-5-5-5-5-5-5-5-9-9-9-9-5-5-5-5-
E|-----------------7-7-7-7-3-3-3-3-
   And you......

Interlude (this is all i could come up with)
e|---------------------------------------------------------
B|---------------------------------------------------------
G|-7-7-7--7-7-7--------------------------------------------
D|-7-7-7--7-7-7--7-7-7--7-7-7--9-9-9--9-9-9--5-5-5--5-5-5--
A|-5-5-5--5-5-5--7-7-7--7-7-7--9-9-9--9-9-9--5-5-5--5-5-5--
E|---------------5-5-5--5-5-5--7-7-7--7-7-7--3-3-3--3-3-3--
PM .....  .....  .....  .....  .....  .....  .....  .....

Get the CD or dl all the songs for boxcar racer. good stuff i say.
Any comments on this tab, send to aznloserkid182@hotmail.com 

Comments