Boxcar Racer - And I Chords & Tabs

 

And I Chords & Tabs

Boxcar Racer Chords & Tabs

Version: 2 Type: Tab 0 ratings
1 star 2 stars 3 stars 4 stars 5 stars
comments

And I Tab

AND I
BOX CAR RACER

intro(guitar 1)
E|--------------------------------------------------------------------------------------------|
B|--------------------------------------------------------------------------------------------|
G|-11-11-11-11-11-11-11-11-11-11-11-11-11/7-7-7--9-9-9-9/7-7-7-7--11-11-11-11-11/7-7-7--------|
D|-x--x--x--x--x--x--x--x--x--x--x--x--x--x-x-x--x-x-x-x-x-x-x-x--x--x--x--x--x--x-x-x--------|
A|-9--9--9--9--9--9--9--9--9--9--9--9--9-/5-5-5--7-7-7-7/5-5-5-5--9--9--9--9--9-/5-5-5--------|
E|--------------------------------------------------------------------------------------------|
do this 4 times then..

guitar 2(start on 5th time)(this is also the chorus)
E|-----------------------------------------------|
B|-----------------------------------------------|
G|-7-777777-------------4-444444-----------------|
D|-7-777777--4-4444444--4-444444--5-555555-------|
A|-5-555555--5-5555555--2-222222--5-555555-------|
E|-----------2-2222222------------3-333333-------|

guitar 3(start same time as guitar 2)(this is also the chorus)
E|------------------------------------------------------------------------------------|
B|------------------------------------------------------------------------------------|
G|-------------------------11---11-11-11-11-11-11-------------------------------------|
D|-12--12-12-12-12-12-12---12---12-12-12-12-12-12---9--9-9-9-9-9-9---5--5-5-5-5-5-5---|
A|-12--12-12-12-12-12-12----9----9--9--9--9--9--9---9--9-9-9-9-9-9---5--5-5-5-5-5-5---|
E|-10--10-10-10-10-10-10---10---10-10-10-10-10-10---7--7-7-7-7-7-7---3--3-3-3-3-3-3---|
guitars 2 and 3 are to be played at the same time in the beginning and in the chorus
[ Tab from: http://www.guitartabs.cc/tabs/b/boxcar_racer/and_i_tab_ver_2.html ]
verse
E|-----------------------|
B|-----------------------|
G|-7-77777-77777777------|
D|-0-00000-00000000------|
A|-5-55555-55555555------|
E|-----------------------|

then do chorus and then back to this 
then for the interlude

E|---------------|
B|---------------|
G|-7-------------|
D|-x-------------|
A|-5-------------|
E|---------------|
let this ring

E|---------------------------------------|  
B|---------------------------------------|
G|---------------------------------------|
D|---------------------------------------|
A|-55-555-5--77-777-7--22-222-2----------|
E|-^^-^^^-^--^^-^^^-^--^^-^^^-^--33-333--|
                                 ^^ ^^^
^=palm mute
do this twice   then..

E|---------------------------------------|
B|---------------------------------------|
G|---------------------------------------|
D|-----------55-555----------------------|
A|-55-555-5--77-777-7--22-222-2----------|
E|-^^-^^^-^--^^-^^^-^--^^-^^^-^--33-333--|
                                 ^^ ^^^
^=palm mute
then..
E|----------------------------------------|
B|----------------------------------------|
G|----------------------------------------|
D|----------------------------------------|
A|-55-555-5--77-777-7--22-222-2--55-555---|
E|-^^-^^^-^--^^-^^^-^--^^-^^^-^--33-333-0-|
                                 ^^ ^^^
^=palm mute

do chorus
and then..
E|---------------------------------------------------------|
B|---------------------------------------------------------|
G|-777777777777777777777777--------------------------------|
D|-777777777777777777777777--444444444444--55555555555-----|
A|-555555555555555555555555--555555555555--55555555555-----|
E|---------------------------222222222222--33333333333-----|

end on
E|------------|
B|------------|
G|-7----------|
D|-7----------|
A|-5----------|
E|------------|
Comments