Boxcar Racer - All Systems Go Chords & Tabs

 

All Systems Go Chords & Tabs

Boxcar Racer Chords & Tabs

Version: 6 Type: Tab 0 ratings
1 star 2 stars 3 stars 4 stars 5 stars
comments

All Systems Go Tab

Box Car Racer - All Systems Go

Guitarist - Tom DeLonge

Tabbed by: "Tukkis" of Everything's Taken


Pretty straight forward song.  Hope you have fun playing it.  It's great to just jump around and play and have fun.

I know there are two guitarists in this band (lead, and rhythm) but I tabbed what I hear, and I'm pretty sure it's the lead so don't get too icky about how i dont include the rhythm guitarist.


I will try and tab more when I have the time, but I am almost 100% positive that this tab is rite.So...




Intro....


e|-------------------------------------------------------------------|
B|-------------------------------------------------------------------|
G|-------------------------------------------------------------------| Pretty sure the # of strums is
D|-------------------------------------------------------------------| rite, but theres a a strum in 
A|-7-7-7-7-7-7-7-7-7-7-7-7-7-7-7-7-7-7-7-7-7-7-7-7-7-7-7-7-7---------| there that has a rhythm diff
E|-5-5-5-5-5-5-5-5-5-5-5-5-5-5-5-5-5-5-5-5-5-5-5-5-5-5-5-5-5---------| from the others, listen 2 song!

Main Riff....

e|-------------------------------------------------------------------|
B|-------------------------------------------------------------------|
G|-------------------------------------------------------------------|
D|-------6-6-6-------------------------------------------------------| Again, listen 2 song for rhythm
A|-7-7-7-4-4-4-6-6-6-7-7-7-6-6-2-2-----------------------------------|
E|-5-5-5-------4-4-4-5-5-5-4-4-0-0-----------------------------------|

Verse....

e|-------------------------------------------------------------------|
B|-------------------------------------------------------------------|
G|-------------------------------------------------------------------|
D|---------------------------------6-6-6-6-6-6-x0x-------------------| *SIGH* Rhythm once more....
A|-7-7-7-7-7-7-7-7-7-7-7-7-7-7-x0x-4-4-4-4-4-4-x0x-4-4-4-4-4-6-6-6---|
E|-5-5-5-5-5-5-5-5-5-5-5-5-5-5-x0x-----------------2-2-2-2-2/4-4-4---|

Chorus....

e|-------------------------------------------------------------------|
B|-------------------------------------------------------------------|
G|-------------------------------------------------------------------| Here, the correct # of strums ISNT
D|-5-5-5-5-5-5-5-5-2-2-2-2-------------------------------------------| shown, but you're smart people,
A|-3-3-3-3-2-2-2-2-0-0-0-0-3-3-3-3-----------------------------------| you can figure it out.
E|-------------------------1-1-1-1-----------------------------------|

Fill....

D|-------------------------------------------------------------------| 
A|-------------------------------------------------------------------| 
E|-------------------------------------------------------------------| It's just half the intro, but ill
D|-------------------------------------------------------------------| tab it anyways---again, listen
A|-7-7-7-7-7-7-7-7-7-7-7-7-7-----------------------------------------| for rhythm 
E|-5-5-5-5-5-5-5-5-5-5-5-5-5-----------------------------------------|

Interlude p.1....
[ Tab from: http://www.guitartabs.cc/tabs/b/boxcar_racer/all_systems_go_tab_ver_6.html ]
e|-------------------------------------------------------------------|
B|-------------------------------------------------------------------|
G|-2-2-2-1-1-1-2-2-2-1-1-1-2-2-1-1-----------------------------------|
D|-------------------------------------------------------------------| It's some weird mechanical sound, 
A|-------------------------------------------------------------------| but if u wanna play it, its like 
E|-------------------------------------------------------------------| this..

Interlude p.2....

   . . . . . . . . . . . . . . . . . . . . . . . . . . . . . . . .      (. = palm mute)
e|-------------------------------------------------------------------|
B|-------------------------------------------------------------------|
G|-------------------------------------------------------------------| Yikes, counting strums was a pain,
D|-2-2-2-2-2-2-2-2-2-2-2-2-2-2-2-2-----------------------------------| but I'm pretty sure it's rite
A|-0-0-0-0-0-0-0-0-0-0-0-0-0-0-0-0-2-2-2-2-2-2-2-2-2-2-2-2-2-2-2-2---|
E|---------------------------------0-0-0-0-0-0-0-0-0-0-0-0-0-0-0-0---|

Interlude p.2 end....

   . . . . . . . . . . . . . . . . .                                    (. = palm mute)
e|-------------------------------------------------------------------|
B|-------------------------------------------------------------------|
G|-------------------------------------------------------------------| 
D|-2-2-2-2-2-2-2-2-2-2-2-2-2-2-2-2-----------------------------------| 
A|-0-0-0-0-0-0-0-0-0-0-0-0-0-0-0-0-2---------------------------------|
E|---------------------------------0---------------------------------|

Outro....

                                                                        (r = let ring)
e|-------------------------------------------------------------------|
B|-------------------------------------------------------------------|
G|-------------------------------------------------------------------| 
D|-------6-6-6-------------------------------------------------------| 
A|-7-7-7-4-4-4-6-6-6-7r----------------------------------------------| 
E|-5-5-5-------4-4-4-5r----------------------------------------------|




Order:
Intro----------(x1)--With lower volume & distortion
Main Riff------(x4)--With blasting volume & distortion
Verse----------(x4)--With lower volume & very little distortion
Chorus---------(x2)--With normal volume & distortion
Fill-----------(x1)--With lower volume & distortion
Main Riff------(x4)--With blasting volume & distortion
Verse----------(x4)--With lower volume & very little distortion
Fill-----------(x1)--With lower volume & distortion
Chorus---------(x4)--With normal volume & distortion

Interlude

Interlude p.1--(x8)--Needs some other effect device, to find something that sounds remotely the same

Interlude p.2--(x3)--With normal volume & distortion
Interlude p.2--(x1)--With normal volume & distortion

Chorus---------(x4)--With normal volume & distortion
Main Riff------(x2)--With lower volume & distortion
Main Riff------(x1)--With blasting volume & distortion
Outro----------(x1)--With blasting volume & distortion



Everything's Taken is the next up and coming band so watch for us...

BA SL JT (DS?)
Comments