Box Car Racer - Why Chords & Tabs

 

Why Chords & Tabs

Box Car Racer Chords & Tabs

Version: 1 Type: Tab 0 ratings
1 star 2 stars 3 stars 4 stars 5 stars
comments

Why Tab

   
boxcar racer 
Why

pm=palm mute



          verse
e----------------------------------------------------
b----------------------------------------------------
g----------------------------------------------------
d----7-7-7-7-7-7-7-7-7-7-7-7-7--6-4-4-4-4-4-4-4-4-4-4
a----7-7-7-7-7-7-7-7-7-7-7-7-7--6-4-4-4-4-4-4-4-4-4-4
e----5-5-5-5-5-5-5-5-5-5-5-5-5--4-2-2-2-2-2-2-2-2-2-2
      pm......................     pm................




e---------------------------------------------------------
b---------------------------------------------------------
g---7-7-7-7-7-7-7-7-7-7-6---------------------------------  x2
d-2-7-7-7-7-7-7-7-7-7-7-6-2-2-2-2-2-2-2-2-4-6-7-7-7-7-7-7-     
a-2-5-5-5-5-5-5-5-5-5-5-4-2-2-2-2-2-2-2-2-4-6-7-7-7-7-7-7-    
e-0-----------------------0-0-0-0-0-0-0-0-2-4-5-5-5-5-5-5-   
     pm................    pm..........


[ Tab from: http://www.guitartabs.cc/tabs/b/box_car_racer/why_tab.html ]
solo between verses
e-------------------------------
b-------------------------------
g-----7-6-4---------------------
d-----------7-6-4-6-7-----------
a-------------------------------
e-------------------------------




chorus
e-----------------------------------------------------------------
b-----------------------------------------------------------------
g-----------------------------------------------------------------
d---7-7-7-7-7-7-7-7-7-7-7-7-7-6-4-4-4-4-4-4-4-4-4-4-4-4-2---------
a---7-7-7-7-7-7-7-7-7-7-7-7-7-6-4-4-4-4-4-4-4-4-4-4-4-4-2---------
e---5-5-5-5-5-5-5-5-5-5-5-5-5-4-2-2-2-2-2-2-2-2-2-2-2-2-0---------



e--------------------------------------------------------------
b--------------------------------------------------------------
g-7-7-7-7-7-7-7-7-7-7-7-6--------------------------------------
d-7-7-7-7-7-7-7-7-7-7-7-6-2-2-2-2-2-2-2-2-2-2--2-4-6-7---------
a-5-5-5-5-5-5-5-5-5-5-5-4-2-2-2-2-2-2-2-2-2-2--2-4-6-7---------
e-------------------------0-0-0-0-0-0-0-0-0-0--0-2-4-5---------



I just havent figured out the 2nd verse but I will keep trying.
Comments