Box Car Racer - What Went Wrong Chords & Tabs

 

What Went Wrong Chords & Tabs

Box Car Racer Chords & Tabs

Version: 1 Type: Tab 0 ratings
1 star 2 stars 3 stars 4 stars 5 stars
comments

What Went Wrong Tab

Hey, I saw Tom play this live at a BoxCar Racer Concert, and no one knows how it really goes, so here.

Capo on 2nd Fret

Intro
e-----------------------------------------
B-----------------------------------------
G-----------------------------------------
D-------9--7------------------------------
A----7------------------------------------
E-----------------------------------------

And Then
e------------------------------------------
B------------------------------------------
G------------------------77777-------------
D-77777777777777--77777--77777-------------
A-77777777777777--44444--55555-------------
E-55555555555555--22222--------------------
[ Tab from: http://www.guitartabs.cc/tabs/b/box_car_racer/what_went_wrong_tab.html ]
After that
e--------------------------------------------------------------------
B--------------------------------------------------------------------
G----------------------------------999999999999999--777777777777777--
D-77777777777777--777777777777777--999999999999999--777777777777777--
A-77777777777777--444444444444444--777777777777777--555555555555555--
E-55555555555555--222222222222222------------------------------------

And then
e--------------------------------------------------------------------
B--------------------------------------------------------------------
G----------------------------------666666666666666--777777777777777--
D-77777777777777--777777777777777--666666666666666--777777777777777--
A-77777777777777--444444444444444--444444444444444--555555555555555--
E-55555555555555--222222222222222------------------------------------

Solo thing
e-------------------------------------------------------------
B-------------------------------------------------------------
G------9--------6--------9------6-----9-----6-----------------
D----7--7-----7---7----7------7-----7------7------------------
A--2--------2---------2------2-----5-------5------------------
E-------------------------------------------------------------
Comments