Box Car Racer - Tiny Voices Chords & Tabs

 

Tiny Voices Chords & Tabs

Box Car Racer Chords & Tabs

Version: 6 Type: Tab 0 ratings
1 star 2 stars 3 stars 4 stars 5 stars
comments

Tiny Voices Tab

#----------------------------------PLEASE NOTE--------------------------------#
#This file is the author's own work and represents their interpretation of the#
#song. You may only use this file for private study, scholarship, or research.#
#-----------------------------------------------------------------------------#
#-- File created with Instab - http://www.pconline.com/~smcarey/instab.html --#
#-----------------------------------------------------------------------------#

Author/Artist: box car racer
Title: tiny voices
Transcribed by: paul
Email: aint_life_a_bitc_h@hotmail.com

-|----------------------------|--------|---------------------------------|---
-|----------------------------|--------|---------------------------------|---
-|---------13-13---7777-/-66--|--------|-------88------------------------|---
-|-777777---x--x---7777-/-66--|---7----|-2222--xx--22--77777777-77777777-|---
-|-777777--11-11---5555-/-44--|---x----|-2222--66--22--77777777-77777777-|---
-|-555555---------------------|---5----|-0000------00--44444444-55555555-|---
     intro                      verse          chorus                         
[ Tab from: http://www.guitartabs.cc/tabs/b/box_car_racer/tiny_voices_tab_ver_6.html ]
-|-----------------------|--------------------------------------|------------
-|-----------------------|--------------------------------------|------------
-|-xxxxxxxxxxxxxxxxxxxxxx|--------------------------------------|------------
-|-xxxxxxxxxxxxxxxxxxxxxx|-----2-----2-----2-----4-----4-----4--|------------
-|-xxxxxxxxxxxxxxxxxxxxxx|---2-----2-----2-----2-----2-----2----|------------
-|-xxxxxxxxxxxxxxxxxxxxxx|-0-----0-----0-----0-----0-----0------|------------
   post chorus                middle                                          

-|------------------------------------------------------------------------|--
-|------------------------------------------------------------------------|--
-|------------------------------------------------------------------------|--
-|-----2-----2-----2-----4-----4-----4-----2-----2-----2-----4-----4-----4|--
-|---2-----2-----2-----2-----2-----2-----2-----2-----2-----2-----2-----2--|--
-|-4-----4-----4-----4-----4-----4-----5-----5-----5-----5-----5-----5----|--
   cont                                                                       

-|--------|------------------------|-----------------------------------------
-|--------|--5---4--5--9--7--5--5--|-----------------------------------------
-|--------|--x---x--x--x--x--x--4--|-----------------------------------------
-|--------|--2---1--2--6--4--2--2--|-----------------------------------------
-|-------0|------------------------|-----------------------------------------
-|-0--4---|------------------------|-----------------------------------------
  (big space between notes)  piano (something for gtr 2)
Comments