Box Car Racer - Tiny Voices Chords & Tabs

 

Tiny Voices Chords & Tabs

Box Car Racer Chords & Tabs

Version: 2 Type: Bass Tab 0 ratings
1 star 2 stars 3 stars 4 stars 5 stars
comments

Tiny Voices Bass Tab

Intro
G-4-44-44-4h6-4-44-44h6-4-44-44h6----8----------------------
D-------------6-66-66~--4-44-44-------9-8h9-----------------
A-----------------------------------------------------------
E-----------------------------------------------------------
[ Tab from: http://www.guitartabs.cc/tabs/b/box_car_racer/tiny_voices_btab_ver_2.html ]
Verse
G-------------------------4~------1~------------------------
D----------------------------------------6~-----------------
A--------------------12\------------------------------------
E-----------------------------------------------------------

Chorus 
G-4444444---------------------------------------------------
D------------66666666-4444444444444444----------------------
A-----------------------------------------------------------
E-----------------------------------------------------------

Bridge
G------------------------------------------
D------------------------------------------
A-6-66-66---66----------------6-66-66---66-
E---------4---------------------4----------
Comments