Box Car Racer - There Is Chords & Tabs

 

There Is Chords & Tabs

Box Car Racer Chords & Tabs

Version: 4 Type: Tab 0 ratings
1 star 2 stars 3 stars 4 stars 5 stars
comments

There Is Tab

   
Artist: Boxcar Racer
Song: There Is
Standard Tuning: EADGBe
Tabbed by: gair182

Any questions, comments or hate mail, send it to gair182@hotmail.com

Intro/Bridge:

e|---------------------------------------------------|
B|---------------------------------------------------|
G|-88888888888-66666666666-44444444444-666666-333333-|
D|-xxxxxxxxxxx-xxxxxxxxxxx-xxxxxxxxxxx-xxxxxx-xxxxxx-| x2
A|-66666666666-44444444444-22222222222-444444-111111-|
E|---------------------------------------------------|

Verse:

e|-------------------------------------------------|
B|-------------------------------------------------|
G|-------------------------------------------------|
D|-44444444444-------------------------------------| x4
A|-22222222222-44444444444-66666666666-22222222222-|
E|-------------22222222222-44444444444-00000000000-|

Chorus Riff:

Guitar #1
e|-------------|
B|-----0-2-0-0-|
G|-4-4---------|
D|-------------| x8
A|-------------|
E|-------------|

Guitar #2
e|-------------------------|
B|-------------------------|
G|-44444444444-66666666666-|
D|-xxxxxxxxxxx-xxxxxxxxxxx-| x4
A|-22222222222-44444444444-|
E|-------------------------|

Interlude
[ Tab from: http://www.guitartabs.cc/tabs/b/box_car_racer/there_is_tab_ver_4.html ]
e|-------------------------------------------------|
B|-------------------------------------------------|
G|-88888888888-99999999999-88888888888-99999999999-|
D|-xxxxxxxxxxx-xxxxxxxxxxx-xxxxxxxxxxx-xxxxxxxxxxx-|
A|-66666666666-77777777777-66666666666-77777777777-|
E|-------------------------------------------------|

e|-------------------------------------------------|
B|-------------------------------------------------|
G|-88888888888-------------88888888888-66666666666-|
D|-xxxxxxxxxxx-99999999999-xxxxxxxxxxx-xxxxxxxxxxx-|
A|-66666666666-xxxxxxxxxxx-66666666666-44444444444-|
E|-------------77777777777-------------------------|

Last Chorus

Guitar #1
e|-------------------------|
B|-------------------------|
G|-44444444444-66666666666-|
D|-xxxxxxxxxxx-xxxxxxxxxxx-| x4
A|-22222222222-44444444444-|
E|-------------------------|

Guitar #2
e|-------------|
B|-----0-2-0-0-|
G|-4-4---------|
D|-------------| x8
A|-------------|
E|-------------|

Guitar #1
e|-------------------------|
B|-------------------------|
G|-88888888888-66666666666-|
D|-xxxxxxxxxxx-xxxxxxxxxxx-| x4
A|-66666666666-44444444444-|
E|-------------------------|

End On

e|---|
B|---|
G|-4-|
D|-4-|
A|-2-|
E|---|
Comments