Box Car Racer - There Is Chords & Tabs

 

There Is Chords & Tabs

Box Car Racer Chords & Tabs

Version: 10 Type: Tab 0 ratings
1 star 2 stars 3 stars 4 stars 5 stars
comments

There Is Tab

BoxCar Racer
BoxCar Racer
There is

Intro:
e---------------------------------|
B---------------------------------|
G--8-----6-----4-----6-----3------|
D----x8----x8----x8----x4----x4---|
A--6-----4-----2-----4-----1------|
E---------------------------------|

Listen to the song for strum pattern.
Repeat as required.

Verse:
e---------------------------|
B---------------------------|
G--4------------------------|
D--4-x8--4-----6-----2------|
A--2-----4-x8--6-x8--2-x8---|
E--------2-----4-----0------|

Listen to song for strum pattern.
Repeat as required.
[ Tab from: http://www.guitartabs.cc/tabs/b/box_car_racer/there_is_tab_ver_10.html ]
Chorus:
e---------------------------|
B---------------------------|
G--4-----4------------------|
D--4-x8--4-x8--6-----2------|
A--2-----1-----6-x8--2-x8---|
E--------------4-----0------|

Listen to song for strum patten.
Repeat as required.
Play intro again.

Interlude:
e------------------------------------|
B------------------------------------|
G--8-----9-----------9-----8-----6---|
D----X8----x8--6-------x8----x8----x8| 
A--6-----7-------x8--7-----6-----4---|
E--------------4---------------------|

Listen to song for strum pattern.
Repeat as required.
Play verse again

Outro:
e-----|
B-----|
G--4~-|
D-----| 
A--2~-|
E-----|

Very good song.
Easy to play.
100% correct!

Peace out.
Comments