Box Car Racer - Sorrow Chords & Tabs

 

Sorrow Chords & Tabs

Box Car Racer Chords & Tabs

Version: 7 Type: Tab 0 ratings
1 star 2 stars 3 stars 4 stars 5 stars
comments

Sorrow Tab

It a good song, you should learn it...

e|-------------------|           |--------------------|
B|-------------------|           |--------------------|
G|-------------------|           |--------------------|
D|-------------------|     x2    |--------------------|   x3 ..pause.. x3
A|-5-4---7---5-4-----|           |-5-4-------5-4------|
E|-----5---5---------|           |-----5---5----------|

e|----------------------------------------|
B|----------------------------------------|
G|----------------------------------------|
D|-77777777 66666666 44444444 66666666----|     x2
A|-xxxxxxxx-xxxxxxxx-xxxxxxxx-xxxxxxxx----|
E|-55555555-44444444-22222222-44444444----|

e|--------------------|
B|--------------------|
G|--------------------|
D|--------------------|     x3 ..pause.. x3
A|-5-4-------5-4------|
E|-----5---5----------|

e|----------------------------------------|
B|----------------------------------------|
G|----------------------------------------|
D|-77777777 66666666 44444444 66666666----|     x2
A|-xxxxxxxx-xxxxxxxx-xxxxxxxx-xxxxxxxx----|
E|-55555555-44444444-22222222-44444444----|

e|----------------------------------------|
B|----------------------------------------|
G|----------------------------------------|
D|-77777777-66666666-44444444-66666666----|     x2
A|-77777777-66666666-44444444-66666666----|
E|-55555555-44444444-22222222-44444444----|

e|--------------------|
B|--------------------|
G|--------------------|
D|--------------------|     x3 ..pause.. x3
A|-5-4-------5-4------|
E|-----5---5----------|
[ Tab from: http://www.guitartabs.cc/tabs/b/box_car_racer/sorrow_tab_ver_7.html ]
e|----------------------------------------|
B|----------------------------------------|
G|----------------------------------------|
D|-77777777 66666666 44444444 66666666----|     x2
A|-xxxxxxxx-xxxxxxxx-xxxxxxxx-xxxxxxxx----|
E|-55555555-44444444-22222222-44444444----|

e|----------------------------------------|
B|----------------------------------------|
G|----------------------------------------|
D|-77777777-66666666-44444444-66666666----|     x4
A|-77777777-66666666-44444444-66666666----|
E|-55555555-44444444-22222222-44444444----|

e|------------------------------------------------------------------|
B|---2-------2-------2-------2-------2-------2-------2-------3------|
G|-2---2---2---2---2---2---2---2---2---2---2---2---2---2---2---2----|
D|------------------------------------------------------------------|     x2
A|------------------------------------------------------------------|
E|------------------------------------------------------------------|

e|------------------------------------------------------------------|
B|---2-------3-------2-------3-------2-------3-------2-------3------|
G|-2---2---2---2---2---2---2---2---2---2---2---2---2---2---2---2----|
D|------------------------------------------------------------------|     x2
A|------------------------------------------------------------------|
E|------------------------------------------------------------------|

e|----------------------------------------|           |-----|
B|----------------------------------------|           |-----|
G|----------------------------------------|           |-----|
D|-77777777-66666666-44444444-66666666----|     x4    |--7--|     let ring
A|-77777777-66666666-44444444-66666666----|           |--7--|
E|-55555555-44444444-22222222-44444444----|           |--5--|
Comments