Box Car Racer - Sorrow Chords & Tabs

 

Sorrow Chords & Tabs

Box Car Racer Chords & Tabs

Version: 6 Type: Tab 0 ratings
1 star 2 stars 3 stars 4 stars 5 stars
comments

Sorrow Tab

Artist: Boxcar Racer
Album: Boxcar Racer
Song: Sorrow
Tabbed by Zilveztre(@gmail.com)

Intro
e|----------------------------|
B|----------------------------|
G|----------------------------|
D|--0-----2---0---------------| X8
A|----4-0---0---4-------------|
E|----------------------------|

Verse
e|------------------------------------------------------------------|
B|------------------------------------------------------------------|
G|--5-5-5-5-5-5-5-5-------------------------------------------------|
D|--3-3-3-3-3-3-3-3-6-6-6-6-6-6-6-6-4-4-4-4-4-4-4-4-6-6-6-6-6-6-6-6-| X2
A|--3-3-3-3-3-3-3-3-4-4-4-4-4-4-4-4-2-2-2-2-2-2-2-2-4-4-4-4-4-4-4-4-|
E|------------------4-4-4-4-4-4-4-4-2-2-2-2-2-2-2-2-4-4-4-4-4-4-4-4-|

Interlude
e|----------------------------|
B|----------------------------|
G|----------------------------|
D|--0-----2---0---------------| X7
A|----4-0---0---4-------------|
E|----------------------------|

Verse
e|------------------------------------------------------------------|
B|------------------------------------------------------------------|
G|--5-5-5-5-5-5-5-5-------------------------------------------------|
D|--3-3-3-3-3-3-3-3-6-6-6-6-6-6-6-6-4-4-4-4-4-4-4-4-6-6-6-6-6-6-6-6-| X2
A|--3-3-3-3-3-3-3-3-4-4-4-4-4-4-4-4-2-2-2-2-2-2-2-2-4-4-4-4-4-4-4-4-|
E|------------------4-4-4-4-4-4-4-4-2-2-2-2-2-2-2-2-4-4-4-4-4-4-4-4-|
[ Tab from: http://www.guitartabs.cc/tabs/b/box_car_racer/sorrow_tab_ver_6.html ]
Chorus
e|--------------------------------------------------------------------|
B|--------------------------------------------------------------------|
G|--8-8-8-8-8-8-8-8-6-6-6-6-6-6-6-6-4-4-4-4-4-4-4-4-6-6-6-6-6-6-6-6---|
D|--8-8-8-8-8-8-8-8-6-6-6-6-6-6-6-6-4-4-4-4-4-4-4-4-6-6-6-6-6-6-6-6---|
A|--6-6-6-6-6-6-6-6-4-4-4-4-4-4-4-4-2-2-2-2-2-2-2-2-4-4-4-4-4-4-4-4---|
E|--------------------------------------------------------------------|

Interlude
e|----------------------------|
B|----------------------------|
G|----------------------------|
D|--0-----2---0---------------| X7
A|----4-0---0---4-------------|
E|----------------------------|

Verse
e|------------------------------------------------------------------|
B|------------------------------------------------------------------|
G|--5-5-5-5-5-5-5-5-------------------------------------------------|
D|--3-3-3-3-3-3-3-3-6-6-6-6-6-6-6-6-4-4-4-4-4-4-4-4-6-6-6-6-6-6-6-6-| X2
A|--3-3-3-3-3-3-3-3-4-4-4-4-4-4-4-4-2-2-2-2-2-2-2-2-4-4-4-4-4-4-4-4-|
E|------------------4-4-4-4-4-4-4-4-2-2-2-2-2-2-2-2-4-4-4-4-4-4-4-4-|

Chorus
e|--------------------------------------------------------------------|
B|--------------------------------------------------------------------|
G|--8-8-8-8-8-8-8-8-6-6-6-6-6-6-6-6-4-4-4-4-4-4-4-4-6-6-6-6-6-6-6-6---|
D|--8-8-8-8-8-8-8-8-6-6-6-6-6-6-6-6-4-4-4-4-4-4-4-4-6-6-6-6-6-6-6-6---| X4
A|--6-6-6-6-6-6-6-6-4-4-4-4-4-4-4-4-2-2-2-2-2-2-2-2-4-4-4-4-4-4-4-4---|
E|--------------------------------------------------------------------|

Interlude before the last chorus
e|-----------------------|
B|-----------------------|
G|--7--------------------|
D|----7-9----------------| X32
A|-----------------------|
E|-----------------------|

Chorus
e|--------------------------------------------------------------------|
B|--------------------------------------------------------------------|
G|--8-8-8-8-8-8-8-8-6-6-6-6-6-6-6-6-4-4-4-4-4-4-4-4-6-6-6-6-6-6-6-6---|
D|--8-8-8-8-8-8-8-8-6-6-6-6-6-6-6-6-4-4-4-4-4-4-4-4-6-6-6-6-6-6-6-6---| X4
A|--6-6-6-6-6-6-6-6-4-4-4-4-4-4-4-4-2-2-2-2-2-2-2-2-4-4-4-4-4-4-4-4---|
E|--------------------------------------------------------------------|


That's all about it, ejoy, any comments to my e-mail
Comments