Box Car Racer - Letters To God Chords & Tabs

 

Letters To God Chords & Tabs

Box Car Racer Chords & Tabs

Version: 8 Type: Tab 0 ratings
1 star 2 stars 3 stars 4 stars 5 stars
comments

Letters To God Tab

Song: Letters To God                                  
Artist: Boxcar Racer
Tuning: Standart (EBGDAE)

Acoustic Guitar

                                                               
E||----------------------------|--3---3-3--3-3--3-3-3-3-3----||
B||----------------------------|--0---0-0--0-0--0-0-0-0-0----||
G||*--0---0-0--0-0--0-0--0-----|--0---0-0--0-0--0-0-0-0-0---*||
D||*--2---2-2--2-2--2-2--2-4---|--0---0-0--0-0--0-0-0-0-0---*||
A||---2---2-2--2-2--2-2--2-4---|--2---2-2--2-2--2-2-2-2-2----||
E||---0---0-0--0-0--0-0--0-2---|--3---3-3--3-3--3-3-3-3-3----||


                                                           3x
-----------------------------|--3---3-3--3-3--3-3-3-3-3----||
-----------------------------|--0---0-0--0-0--0-0-0-0-0----||
*--0---0-0--0-0--0-0-0-0-0---|--0---0-0--0-0--0-0-0-0-0---*||
*--2---2-2--2-2--2-2-2-2-2---|--0---0-0--0-0--0-0-0-0-0---*||
---2---2-2--2-2--2-2-2-2-2---|--2---2-2--2-2--2-2-2-2-2----||
---0---0-0--0-0--0-0-0-0-0---|--3---3-3--3-3--3-3-3-3-3----||

                                                       
-----------------------------|--0---0-0--0-0--0-0-0-0-0---|
-----------------------------|--1---1-1--1-1--1-1-1-1-1---|
*--0---0-0--0-0--0-0-0-0-0---|--0---0-0--0-0--0-0-0-0-0---|
*--2---2-2--2-2--2-2-2-2-2---|--2---2-2--2-2--2-2-2-2-2---|
---2---2-2--2-2--2-2-2-2-2---|--3---3-3--3-3--3-3-3-3-3---|
---0---0-0--0-0--0-0-0-0-0---|----------------------------|


--3---3-3--3-3--3-3-3-3-3---|--2---2-2--2-2--2-2-2-2-2----||
--0---0-0--0-0--0-0-0-0-0---|--3---3-3--3-3--3-3-3-3-3----||
--0---0-0--0-0--0-0-0-0-0---|--2---2-2--2-2--2-2-2-2-2---*||
--0---0-0--0-0--0-0-0-0-0---|--0---0-0--0-0--0-0-0-0-0---*||
--2---2-2--2-2--2-2-2-2-2---|-----------------------------||
--3---3-3--3-3--3-3-3-3-3---|-----------------------------||

                                                            
----------------------------|--3---3-3--3-3--3-3-3-3-3----||
----------------------------|--0---0-0--0-0--0-0-0-0-0----||
*--0---0-0--0-0--0-0--0-----|--0---0-0--0-0--0-0-0-0-0---*||
*--2---2-2--2-2--2-2--2-4---|--0---0-0--0-0--0-0-0-0-0---*||
---2---2-2--2-2--2-2--2-4---|--2---2-2--2-2--2-2-2-2-2----||
---0---0-0--0-0--0-0--0-2---|--3---3-3--3-3--3-3-3-3-3----||

                                                           3x
-----------------------------|--3---3-3--3-3--3-3-3-3-3----||
-----------------------------|--0---0-0--0-0--0-0-0-0-0----||
*--0---0-0--0-0--0-0-0-0-0---|--0---0-0--0-0--0-0-0-0-0---*||
*--2---2-2--2-2--2-2-2-2-2---|--0---0-0--0-0--0-0-0-0-0---*||
---2---2-2--2-2--2-2-2-2-2---|--2---2-2--2-2--2-2-2-2-2----||
---0---0-0--0-0--0-0-0-0-0---|--3---3-3--3-3--3-3-3-3-3----||


                                                           
-----------------------------|--0---0-0--0-0--0-0-0-0-0---|
-----------------------------|--1---1-1--1-1--1-1-1-1-1---|
*--0---0-0--0-0--0-0-0-0-0---|--0---0-0--0-0--0-0-0-0-0---|
*--2---2-2--2-2--2-2-2-2-2---|--2---2-2--2-2--2-2-2-2-2---|
---2---2-2--2-2--2-2-2-2-2---|--3---3-3--3-3--3-3-3-3-3---|
---0---0-0--0-0--0-0-0-0-0---|----------------------------|


                                                            
--3---3-3--3-3--3-3-3-3-3---|--2---2-2--2-2--2-2-2-2-2----||
--0---0-0--0-0--0-0-0-0-0---|--3---3-3--3-3--3-3-3-3-3----||
--0---0-0--0-0--0-0-0-0-0---|--2---2-2--2-2--2-2-2-2-2---*||
--0---0-0--0-0--0-0-0-0-0---|--0---0-0--0-0--0-0-0-0-0---*||
--2---2-2--2-2--2-2-2-2-2---|-----------------------------||
--3---3-3--3-3--3-3-3-3-3---|-----------------------------||


                                                          
--3---3-3--3-3--3-3-3-3-3---|--0---0-0--0-0--0-0-0-0-0---|
--0---0-0--0-0--0-0-0-0-0---|--1---1-1--1-1--1-1-1-1-1---|
--0---0-0--0-0--0-0-0-0-0---|--2---2-2--2-2--2-2-2-2-2---|
--0---0-0--0-0--0-0-0-0-0---|--2---2-2--2-2--2-2-2-2-2---|
--2---2-2--2-2--2-2-2-2-2---|--0---0-0--0-0--0-0-0-0-0---|
--3---3-3--3-3--3-3-3-3-3---|----------------------------|


                                                          
----------------------------|--0---0-0--0-0--0-0-0-0-0---|
--3---3-3--3-3--3-3-3-3-3---|--1---1-1--1-1--1-1-1-1-1---|
--4---4-4--4-4--4-4-4-4-4---|--2---2-2--2-2--2-2-2-2-2---|
--4---4-4--4-4--4-4-4-4-4---|--2---2-2--2-2--2-2-2-2-2---|
----------------------------|--0---0-0--0-0--0-0-0-0-0---|
----------------------------|----------------------------|

[ Tab from: http://www.guitartabs.cc/tabs/b/box_car_racer/letters_to_god_tab_ver_8.html ]
                                                          
--3---3-3--3-3--3-3-3-3-3---|--0---0-0--0-0--0-0-0-0-0---|
--0---0-0--0-0--0-0-0-0-0---|--1---1-1--1-1--1-1-1-1-1---|
--0---0-0--0-0--0-0-0-0-0---|--2---2-2--2-2--2-2-2-2-2---|
--0---0-0--0-0--0-0-0-0-0---|--2---2-2--2-2--2-2-2-2-2---|
--2---2-2--2-2--2-2-2-2-2---|--0---0-0--0-0--0-0-0-0-0---|
--3---3-3--3-3--3-3-3-3-3---|----------------------------|


                                                          
----------------------------|--0---0-0--0-0--0-0-0-0-0---|
--3---3-3--3-3--3-3-3-3-3---|--1---1-1--1-1--1-1-1-1-1---|
--4---4-4--4-4--4-4-4-4-4---|--2---2-2--2-2--2-2-2-2-2---|
--4---4-4--4-4--4-4-4-4-4---|--2---2-2--2-2--2-2-2-2-2---|
----------------------------|--0---0-0--0-0--0-0-0-0-0---|
----------------------------|----------------------------|


                                                          
--3---3-3--3-3--3-3-3-3-3---|--0---0-0--0-0--0-0-0-0-0---|
--0---0-0--0-0--0-0-0-0-0---|--1---1-1--1-1--1-1-1-1-1---|
--0---0-0--0-0--0-0-0-0-0---|--2---2-2--2-2--2-2-2-2-2---|
--0---0-0--0-0--0-0-0-0-0---|--2---2-2--2-2--2-2-2-2-2---|
--2---2-2--2-2--2-2-2-2-2---|--0---0-0--0-0--0-0-0-0-0---|
--3---3-3--3-3--3-3-3-3-3---|----------------------------|


                                                          
----------------------------|--0---0-0--0-0--0-0-0-0-0---|
--3---3-3--3-3--3-3-3-3-3---|--1---1-1--1-1--1-1-1-1-1---|
--4---4-4--4-4--4-4-4-4-4---|--2---2-2--2-2--2-2-2-2-2---|
--4---4-4--4-4--4-4-4-4-4---|--2---2-2--2-2--2-2-2-2-2---|
----------------------------|--0---0-0--0-0--0-0-0-0-0---|
----------------------------|----------------------------|


                                                          
--3---3-3--3-3--3-3-3-3-3---|--0---0-0--0-0--0-0-0-0-0---|
--0---0-0--0-0--0-0-0-0-0---|--1---1-1--1-1--1-1-1-1-1---|
--0---0-0--0-0--0-0-0-0-0---|--2---2-2--2-2--2-2-2-2-2---|
--0---0-0--0-0--0-0-0-0-0---|--2---2-2--2-2--2-2-2-2-2---|
--2---2-2--2-2--2-2-2-2-2---|--0---0-0--0-0--0-0-0-0-0---|
--3---3-3--3-3--3-3-3-3-3---|----------------------------|


                                                                               
----------------------------|--0---0-0--0-0--0-0-0-0-0---||
--3---3-3--3-3--3-3-3-3-3---|--1---1-1--1-1--1-1-1-1-1---||
--4---4-4--4-4--4-4-4-4-4---|--2---2-2--2-2--2-2-2-2-2---||
--4---4-4--4-4--4-4-4-4-4---|--2---2-2--2-2--2-2-2-2-2---||
----------------------------|--0---0-0--0-0--0-0-0-0-0---||
----------------------------|----------------------------||

Play Heavy
With distortion

||---------------------------|
||---------------------------|
||*--------------------------|
||*--2--2-2---2--2-2---2-4---|
||---2--2-2---2--2-2---2-4---|
||---0--0-0---0--0-0---0-2---|


                                                           
---------------------------||-----------------------------|
---------------------------||-----------------------------|
--------------------------*||*----------------------------|
--5--5-5---5--5-5---5-5---*||*--2--2-2-2--2--2-2-2--2-4---|
--5--5-5---5--5-5---5-5----||---2--2-2-2--2--2-2-2--2-4---|
--3--3-3---3--3-3---3-3----||---0--0-0-0--0--0-0-0--0-2---|


                                                              
------------------------------||-----------------------------|
------------------------------||-----------------------------|
-----------------------------*||*----------------------------|
--5--5-5-5--5--5-5-5--5-5-5--*||*--2--2-2-2--2--2-2-2--2-2---|
--5--5-5-5--5--5-5-5--5-5-5---||---2--2-2-2--2--2-2-2--2-2---|
--3--3-3-3--3--3-3-3--3-3-3---||---0--0-0-0--0--0-0-0--0-0---|


                                                           
----------------------------|-----------------------------|
----------------------------|-----------------------------|
--5--5-5-5--5--5-5-5--5--5--|-----------------------------|
--5--5-5-5--5--5-5-5--5--5--|--5--5-5-5--5--5-5-5--5-5-5--|
--3--3-3-3--3--3-3-3--3--3--|--5--5-5-5--5--5-5-5--5-5-5--|
----------------------------|--3--3-3-3--3--3-3-3--3-3-3--|


                             3x                                        
-----------------------------||-------------------|
-----------------------------||-------------------|
--7--7-7-7--7--7-7-7--7--7--*||-------------------|
--7--7-7-7--7--7-7-7--7--7--*||--2----------------|
--5--5-5-5--5--5-5-5--5--5---||--2----------------|
-----------------------------||--0----------------|
Comments