Box Car Racer - Letters To God Chords & Tabs

 

Letters To God Chords & Tabs

Box Car Racer Chords & Tabs

Version: 2 Type: Tab 0 ratings
1 star 2 stars 3 stars 4 stars 5 stars
comments

Letters To God Tab

Artist: Boxcar Racer
Song: Letters To God
Tabbed by: Kent

Standard Tuning 
low to high - EADGBE

First of all, this is a Great song. 
The other tabs are a tiny bit off, and i like tabs that are
'play-along', so here ya go, enjoy :)

As for the strumming, i tried to get the right amount of
times he strums the chord, its close or it in my opinion
and it sounds just like the song, but you people can
figure it out urselves eh!

ok i already submitted this tab when i was unregisitered and it didnt show up 
(bin a month now) so i registered and submitted it again, so chill out for all 
those people that are gonna say this is a copy, its the same thing by the same person. 

symbols
/ = slide


Intro:
[0:00]

E|-----------------------------|
B|-----------------------------|
G|-----------------------------|
D|--2-2222-2222/4/5-5555-5555--|  2X
A|--2-2222-2222/4/5-5555-5555--|
E|--0-0000-0000/2/3-3333-3333--|


Verse:
[0:09]

E|---------------------------|
B|---------------------------|
G|---------------------------|
D|--2-2222-2222/5-5555-5555--|   4X
A|--2-2222-2222/5-5555-5555--|
E|--0-0000-0000/3-3333-3333--|


Chorus:
[0:27]

E|------------------------------------------------------|
B|------------------------------------------------------|
G|---------------5-5555-5555----------------------------|
D|--2-2222-2222--5-5555-5555--5-5555-5555--7-7777-7777--|   2X
A|--2-2222-2222--3-3333-3333--5-5555-5555--5-5555-5555--|
E|--0-0000-0000---------------3-3333-3333--5-5555-5555--|


Interlude: (same as intro)
[0:45]

E|-----------------------------|
B|-----------------------------|
G|-----------------------------|
D|--2-2222-2222/4/5-5555-5555--|  2X
A|--2-2222-2222/4/5-5555-5555--|
E|--0-0000-0000/2/3-3333-3333--|

[ Tab from: http://www.guitartabs.cc/tabs/b/box_car_racer/letters_to_god_tab_ver_2.html ]
Verse 2:
[0:54]

E|---------------------------|
B|---------------------------|
G|---------------------------|
D|--2-2222-2222/5-5555-5555--|   2X
A|--2-2222-2222/5-5555-5555--|
E|--0-0000-0000/3-3333-3333--|


Chorus: (piano comes in)
[1:12]

E|------------------------------------------------------|
B|------------------------------------------------------|
G|---------------5-5555-5555----------------------------|
D|--2-2222-2222--5-5555-5555--5-5555-5555--7-7777-7777--|   2X
A|--2-2222-2222--3-3333-3333--5-5555-5555--5-5555-5555--|
E|--0-0000-0000---------------3-3333-3333--5-5555-5555--|


Piano Solo:
[1:31]

E|----------------------------|
B|----------------------------|
G|---------------5-5555-5555--|
D|--5-5555-5555--5-5555-5555--|   8X
A|--5-5555-5555--3-3333-3333--|
E|--3-3333-3333---------------|


Interlude: (turn on the distortion!)
[2:07]

E|-----------------------------|
B|-----------------------------|
G|-----------------------------|
D|--2-2222-2222/4/5-5555-5555--|  2X
A|--2-2222-2222/4/5-5555-5555--|
E|--0-0000-0000/2/3-3333-3333--|

E|------------------------------|
B|------------------------------|
G|------------------------------|
D|--22222222222/4/555555555555--|  2X
A|--22222222222/4/555555555555--|
E|--00000000000/2/333333333333--|


Outro Chorus: (still distortion)
[2:25]

E|------------------------------------------------------|
B|------------------------------------------------------|
G|---------------5-5555-5555----------------------------|
D|--2-2222-2222--5-5555-5555--5-5555-5555--7-7777-7777--|   4X
A|--2-2222-2222--3-3333-3333--5-5555-5555--5-5555-5555--|
E|--0-0000-0000---------------3-3333-3333--5-5555-5555--|

End on:
[3:00]

E|-----|
B|-----|
G|-----|
D|--2--|
A|--2--|
E|--0--|
Comments