Box Car Racer - Letters To God Chords & Tabs

 

Letters To God Chords & Tabs

Box Car Racer Chords & Tabs

Version: 1 Type: Tab 0 ratings
1 star 2 stars 3 stars 4 stars 5 stars
comments

Letters To God Tab

   
Artist: Boxcar Racer
Song : Letters To God
Standard Tuning : EADGBe
Tabbed by : gair182

This is my first tab ever! I thought I'd try to give something back to the site that 
gave me so many tabs ^_^. Hope you like it! Any questions, corrections, comments or
hate mail, send it to gair182@hotmail.com.

Intro and Verse :

e|-------------------|
B|-------------------|
G|-------------------|
D|-22222-2/4/5-55555-|
A|-22222-2/4/5-55555-|
E|-00000-0/2/3-33333-|

Chorus :

e|-------------------------|
B|-------------------------|
G|-------55555-------------|
D|-22222-55555-55555-77777-|
A|-22222-33333-55555-77777-|
E|-00000-------33333-55555-|

Piano Piece on Guitar (still fun to play and it sounds nice!)

e|-----------------------------------------|
B|-----------------------------------------|
G|----7-5----7---7---7-5---5-7---7-5-4-----|
D|-5-------5-------5-----5-----5-------7-5-|
A|-----------------------------------------|
E|-----------------------------------------|
[ Tab from: http://www.guitartabs.cc/tabs/b/box_car_racer/letters_to_god_tab.html ]
e|-----------------------------------------|
B|----------5------------------------------|
G|-5-5-7-7----7-5---4-7-5---5-7---57-5-4---|
D|----------------57-5----5-----5--------7-|
A|-----------------------------------------|
E|-----------------------------------------|

e|----------------------|
B|----------------------|
G|---7---5----7-----4-5-|
D|-5---5---55---5-7-----|
A|----------------------|
E|----------------------|

Heavy Interlude Riff :

e|----------------------------|    |--------------------|
B|----------------------------|    |--------------------|
G|----------------------------|    |--------------------|
D|-2222-2222-2/4-5555-5555-55-| x2 |-2222222/4-55555555-|
A|-2222-2222-2/4-5555-5555-55-|    |-2222222/4-55555555-|
E|-0000-0000-0/2-3333-3333-33-|    |-0000000/2-33333333-|

Chorus Riff Played Heavy :

e|-------------------------|    
B|-------------------------|    
G|-------55555-------------|    
D|-22222-55555-55555-77777-| x4 
A|-22222-33333-55555-77777-|    
E|-00000-------33333-55555-|    

End :

e|---|
B|---|
G|---|
D|-2-| let ring
A|-2-|
E|-0-|
Comments