Box Car Racer - Instrumental Chords & Tabs

 

Instrumental Chords & Tabs

Box Car Racer Chords & Tabs

Version: 2 Type: Tab 0 ratings
1 star 2 stars 3 stars 4 stars 5 stars
comments

Instrumental Tab

guitar 1

e-------------------------------------------------------------------------------
b-------------------------------------------------------------------------------
g---------14--14--14--14--14--14--14--14----14------14--14--14---14\13----------
d-------------------------------------------------------------------------------
a-------------------------------------------------------------------------------
e-------------------------------------------------------------------------------



guitar 2 play same time as guitar 1

e-------------------------------------------------------------------------------
b-------------------------------------------------------------------------------
g-------------------------------------------------------------------------------
d-------------------------------------------------------------------------------
a----------------------------------4-4---0-0-0-0-0-0-4-4-----------4-4----------
e-------------------------------------------------------4-4-4-4-4-4-------------
                              p.m. ------------------------------------


guitar 1

e-------------------------------------------------------------------------------
b-------------------------------------------------------------------------------
g--------13--------13-14---14--14--14--14--14--14--16--14----14--14--14--14--14-
d------14-----------------------------------------------------------------------
a-------------------------------------------------------------------------------
e-------------------------------------------------------------------------------

guitar 2 
e--------------------------(0)--------------------------------------------------
b-------------------------------------------------------------------------------
g-------------------(9)---------------------------------------------------------
d--------------------------------------------------------------(9)--------------
a-------------------------------------------------------------------------------
e-------------------------------------------------------------------------------


guitar 1

e-------------------------------16--17---16-----17--16---------17--16-----------
b----------------------14--15--17-------------17---------17-15---------17-15-14-
g--14----13-14-13----14-------------------------------------------------------14
d-------------------------------------------------------------------------------
a-------------------------------------------------------------------------------
e-------------------------------------------------------------------------------

guitar2 

e-------------------------------------------------------------------------------
b-------------------------------------------------------------------------------
g-------------------------------------------------------------------------------
d------------------------------------------9--------------------(9)-----(9)-----
a-------------------------------------------------------------------------------
e-------------------------------------------------------------------------------

guitar 1

e-----------------16--17--16--------17--16-----------17--16---------------------
b-----14--15--17--------------17-------------17--15---------17--15--14----------
g-----------------------------------------------------------------------14------
d-------------------------------------------------------------------------------
a-------------------------------------------------------------------------------
e-------------------------------------------------------------------------------

guitar 2

e-------------------------------------------------------------------------------
b-------------------------------------------------------------------------------
g-------------------------------------------------------------------------------
d----(9)------------------------------------------------------------------------
a-------------------------------------------------------------------------------
e-------------------------------------------------------------------------------

[ Tab from: http://www.guitartabs.cc/tabs/b/box_car_racer/instrumental_tab_ver_2.html ]
e-------------------------------------------------------------------------------
b-------------------------------------------------------------------------------
g-----------------------------------------9--9--9--9----------------------------
d-----------------9--9--9--9--------------9--9--9--9--------------7--7--7--7----
a-----------------6--6--6--6--------------7--7--7--7--------------7--7--7--7----
e----0--0--0--0---------------0--0--0--0--------------0--0--0--0--4--4--4--4----

e-------------------------------------------------------------------------------
b-------------------------------------------------------------------------------
g---------------------------------------------------------------9--9--9--9------
d--------------7--7--7--7---------------9--9--9--9--------------9--9--9--9------
a--------------7--7--7--7---------------6--6--6--6--------------7--7--7--7------
e--0--0--0--0--5--5--5--5---0--0--0--0--------------0--0--0--0------------------


e-------------------------------------------------------------------------------
b-------------------------------------------------------------------------------
g-------------------------------------------------------------------------------
d---------------7--7--7--7---------------7--------------------------------------
a---------------7--7--7--7---------------7--------------------------------------
e---0--0--0--0--4--4--4--4----0--0--0--0-5--------------------------------------


e-------------------------------------------------------------------------------
b-------------------------------------------------------------------------------
g----13---14-----14---13--14--13----------13--14--------14--13-------13---------
d-------------------------------------------------------------------------------
a-------------------------------------14----------------------------------------
e-------------------------------------------------------------------------------


e-------------------------------------------------------------------------------
b-------------------------------------------------------------------------------
g--14----14---14---14-------14--14----13-14----14--13---13-14-13------13--------
d-------------------------------------------------------------------------------
a-------------------------------------------------------------------------------
e-------------------------------------------------------------------------------


e-------------------------------------------------------------------------------
b----------------------16--17--16-------17---16-----------17--16----------------
g-------14---15---17---------------17-------------17--15----------17--15--14----
d--14-------------------------------------------------------------------------14
a-------------------------------------------------------------------------------
e-------------------------------------------------------------------------------


e----------------------16--17--16------17--16---------17--16--------------------
b---------14--15--17---------------17----------17--15--------17--15--14---------
g-----(14)--------------------------------------------------------------14------
d-------------------------------------------------------------------------------
a-------------------------------------------------------------------------------
e-------------------------------------------------------------------------------



e-------------------------------------------------------------------------------
b-------------------------------------------------------------------------------
g-----------------------------------------9--9--9--9----------------------------
d-----------------9--9--9--9--------------9--9--9--9--------------7--7--7--7----
a-----------------6--6--6--6--------------7--7--7--7--------------7--7--7--7----
e----0--0--0--0---------------0--0--0--0--------------0--0--0--0--4--4--4--4----

e-------------------------------------------------------------------------------
b-------------------------------------------------------------------------------
g---------------------------------------------------------------9--9--9--9------
d--------------7--7--7--7---------------9--9--9--9--------------9--9--9--9------
a--------------7--7--7--7---------------6--6--6--6--------------7--7--7--7------
e--0--0--0--0--5--5--5--5---0--0--0--0--------------0--0--0--0------------------


e-------------------------------------------------------------------------------
b-------------------------------------------------------------------------------
g-------------------------------------------------------------------------------
d---------------7--7--7--7---------------7--------------------------------------
a---------------7--7--7--7---------------7--------------------------------------
e---0--0--0--0--4--4--4--4----0--0--0--0-5--------------------------------------

thats it so hav fun
Comments