Box Car Racer - Instrumental Chords & Tabs

 

Instrumental Chords & Tabs

Box Car Racer Chords & Tabs

Version: 2 Type: Bass Tab 0 ratings
1 star 2 stars 3 stars 4 stars 5 stars
comments

Instrumental Bass Tab

Verse play alot of times
-------------------------------------------
-------------------------------------------
66-------------66--------------------------
--7777777777777--66666666666666666666666666
[ Tab from: http://www.guitartabs.cc/tabs/b/box_car_racer/instrumental_btab_ver_2.html ]
Chorus x2
-------------------------------------------
-------------------------------------------
----------6-6-6-6-6----------7-7-7-7-7-----
0-0-0-0-0----------0-0-0-0-0---------------

-------------------------------------------
-------------------------------------------
-------------------------------------------
0-0-0-0-0-4-4-4-4-0-0-0-0-0-5-5-5-5-5------
Comments