Box Car Racer - I Feel So Chords & Tabs

 

I Feel So Chords & Tabs

Box Car Racer Chords & Tabs

Version: 3 Type: Tab 0 ratings
1 star 2 stars 3 stars 4 stars 5 stars
comments

I Feel So Tab

Intro:
|----------------------------------------------------------
|----------------------------------------------------------
|----------------------------------------------------------
|----5-----------------------------------------------------
|----x-----------------------------------------------------
|----3-----------------------------------------------------

Guitar joins in hear, it is played continuously on guitar 1
Intro pt. 2:
|----------------------------------------------------------
|----------------------------------------------------------
|-------------------7--------------------------------------
|----5--------------7--------------------------------------
|----5-------(x8)---5--------------------------------------
|----3-----------------------------------------------------

this is played 4 times on guitar 1 and 2
Verse on guitar 2:
|----------------------------------------------------------
|----------------------------------------------------------
|-----4----------------------------------------------------
|--5------4-4--2-2--4-4------------------------------------
|----------------------------------------------------------
|----------------------------------------------------------

this is played 4 times on the guitar 2
Verse on guitar 1 (Tom's Guitar):
|----------------------------------------------------------
|----------------------------------------------------------
|----------------------------------------------------------
|----5-5---5-5---------------------------------------------
|----5-5---5-5---------------------------------------------
|----3-3---3-3---------------------------------------------

this is played after the above (the thing played on guitar 2) is played 2 times and this is palm muted and played 4 times on guitar 1
[ Tab from: http://www.guitartabs.cc/tabs/b/box_car_racer/i_feel_so_tab_ver_3.html ]
Chorus:
|----------------------------------------------------------
|----------------------------------------------------------
|----------------------------------------------------------
|---9--------9--------6--------8---------------------------
|---9--(x8)--9--(x8)--6--(x8)--8--(x8)---------------------
|---7--------6--------4--------6---------------------------

I think that this part is played on both guitars, chorus is played twice. Listen to the song to get an exact hold on the chorus.

Interlude:
|---------------------------------------------------------
|---------------------------------------------------------
|-------------------777-----------------------------------
|---5-5-5-x-5-5-5---777-----------------------------------
|---5-5-5-x-5-5-5---555-----------------------------------
|---3-3-3-x-3-3-3-----------------------------------------

played 4 times, I think both guitar agian.

Verse is played again.

Chorus is played again.

|----------------------------------------------------------
|----------------------------------------------------------
|----------------------------------------------------------
|---5-~----------------------------------------------------
|---5-~----------------------------------------------------
|---3-~----------------------------------------------------

this chord is held.

Interlude is played again.

Build-up Verse:
|----------------------------------------------------------
|----------------------------------------------------------
|----------------------------------------------------------
|--9--------9----------9------------------------------------
|--9-(x24)--9--(x24)---9--(x36)-----------------------------
|--7--------7----------7------------------------------------

This is played on guitar 1, it's played fast, so the times to play it that I have 
noted actually don't seem like that much. Listen to the song to get a hang of this part.

chorus is played again.
and played one more time after that. (the very last note is held)
Comments