Box Car Racer - I Feel So Chords & Tabs

 

I Feel So Chords & Tabs

Box Car Racer Chords & Tabs

Version: 14 Type: Tab 0 ratings
1 star 2 stars 3 stars 4 stars 5 stars
comments

I Feel So Tab

   
----------------------------------------------------------------------------
			     I FEEL SO - Boxcar Racer
----------------------------------------------------------------------------
Tabbed by: Tara
h=hold
b=bend
~=scratch down to(next chord written)

Tuning: standard

-The beginning of the song starts with a little piano thing which goes from 0:00-0:18
-Then theres a little bass thing from 0:19-0:27 which i tabbed out-
Intro bass thing:
e|---------------------------------------------------------------|
B|-----00---------------------------00---------------------------|
G|------------44-----22-----44------------44------22------44-----|
D|---------------------------------------------------------------|
A|---------------------------------------------------------------|
E|---------------------------------------------------------------|
[Intro]:
e|---------------------------------------------------------------|
B|---------------------------------------------------------------|
G|---------------------------------------------------------------|
D|---55-----55---------------------------------------------------|
A|---xx-----xx---------------------------------------------------|
E|---33hhhhh33hhhhhh---------------------------------------------|

Then from 0:46-0:50 play first measure (Then from 0:50-0:54 play second measure)
e|-----------|---------------------------------------------------|
B|-----------|---------------------------------------------------|
G|---7-------|-----------7777-5----------------------------------|
D|---x-------|-----------xxxx-x----------------------------------|
A|---5-------|-----------5555-3----------------------------------|
E|-----------|---------------------------------------------------|

[Bridge]
From 1:04-1:12, then pause. Then repeat 1:12-1:23 then pause.
e|---------------------------------------------------------------|
B|---------------------------------------------------------------|
G|-------------77------------------------------------------------|
D|---55-55-55--xx------------------------------------------------|
A|---xx-xx-xx--55------------------------------------------------|
E|---33-33-33----------------------------------------------------|x8

[Verse 1]Guitar 1- (1:24-1:41)
e|----------------------------------------------------------------|
b|----------------------------------------------------------------|
g|---4------------------------------------------------------------|
d|-5---44--22-44--------------------------------------------------|
a|----------------------------------------------------------------|
e|----------------------------------------------------------------|x4
[Verse 1]Guitar 2-(1:33-1:40)
e|----------------------------------------------------------------|
b|----------------------------------------------------------------|
g|----------------------------------------------------------------|
d|--55--44--22--44-----55--44--22--44-----------------------------|
e|--xx--xx--22--xx-----xx--xx--22--xx-----------------------------|
a|--33--22--00--22-----33--22--00--22-----------------------------|

[Chorus]- (1:42-1:59)
e|----------------------------------------------------------------|
B|----------------------------------------------------------------|
G|---9-(x9)--8-(x9)--6-(x9)--8-(x9)-------------------------------|
D|---x-------x-------x-------x------------------------------------|
A|---7-------6-------4-------6------------------------------------|
E|----------------------------------------------------------------|x2
[ Tab from: http://www.guitartabs.cc/tabs/b/box_car_racer/i_feel_so_tab_ver_14.html ]
[Bridge] From 2:00-2:08.
e|---------------------------------------------------------------|
B|---------------------------------------------------------------|
G|-------------77------------------------------------------------|
D|---55-55-55--xx------------------------------------------------|
A|---xx-xx-xx--55------------------------------------------------|
E|---33-33-33----------------------------------------------------|x4

[Verse 2]Guitar 1- (2:09-2:26)
e|----------------------------------------------------------------|
b|----------------------------------------------------------------|
g|---4------------------------------------------------------------|
d|-5---44--22-44--------------------------------------------------|
a|----------------------------------------------------------------|
e|----------------------------------------------------------------|x4

[Verse 2]Guitar 2-(2:18-2:26)
e|----------------------------------------------------------------|
b|----------------------------------------------------------------|
g|----------------------------------------------------------------|
d|--55--44--22--44-----55--44--22--44-----------------------------|
e|--xx--xx--22--xx-----xx--xx--22--xx-----------------------------|
a|--33--22--00--22-----33--22--00--22-----------------------------|

[Chorus]- (2:27-2:44)
e|----------------------------------------------------------------|
B|----------------------------------------------------------------|
G|---9-(x9)--8-(x9)--6-(x9)--8-(x9)-------------------------------|
D|---x-------x-------x-------x------------------------------------|
A|---7-------6-------4-------6------------------------------------|
E|----------------------------------------------------------------|x2

(2:45-3:00)        (3:01-3:03)         (3:04-3:09) (3:10-3:12-------|
e|-----------------|-------------------|---------|------------------|
B|-----------------|-------------------|---------|------------------|
G|-----------------|-------------------|---------|------------------|
D|---5-----5-------|---10-----------4--|--7-(x4)-|--10------4-------|
A|---x-----x-------|---x------------x--|--7------|--x-------x-------|
E|---3hhhhh3hhhhhh-|---8-~~~~~~~~-- 2--|--5------|--8-~~~~~~2-------|

(3:12-3:20)
e|-----------------------------------------------------------------|
B|-----------------------------------------------------------------|
G|-----------------------------------------------------------------|
D|--5-(x7)-7-------------------------------------------------------|
A|--5------7-------------------------------------------------------|
E|--3------5-------------------------------------------------------|x4

(3:21-3:36)
e|----------------|------------------------------------------------|
b|----------------|------------------------------------------------|
g|--4--(x17)------|--4-(x36)---------------------------------------|
d|--x-------------|--x---------------------------------------------|
e|--2-------------|--2---------------------------------------------|
a|------------(x2)|------------------------------------------------|

[Chorus]- (3:37-4:24)
e|---------------------------------------|-----------------------------|
B|---------------------------------------|-----------------------------|
G|---9-(x9)--8-(x9)--6-(x9)--8-(x9)------|---9-------------------------|
D|---x-------x-------x-------x-----------|---9-------------------------|
A|---7-------6-------4-------6-----------|---7-------------------------|
E|----------------------------------(x5)-|-----------------------------|

That's the end. Have fun.
Comments