Box Car Racer - I Feel So Chords & Tabs

 

I Feel So Chords & Tabs

Box Car Racer Chords & Tabs

Version: 6 Type: Bass Tab 0 ratings
1 star 2 stars 3 stars 4 stars 5 stars
comments

I Feel So Bass Tab

Well here you go (In Order)

 After piano intro
G|---------------------------------------------------------|
D|---------------------------------------------------------|
A|-----------5~---x11----------2~---x1---------------------|
E|-0h33-0h33---------0h33-0h33-----------------------------|

 I wish i was young.......part
G|------------------------------------------------------|
D|------------------------------------------------------|
A|------------------------------------------------------|
E|-33-22-00-22-33-22-00-22------------------------------|

 Chorus x2
G|---------------------------------------------------------|
D|---------------------------------------------------------|
A|-7~~~---6~~~---4~~~---6~~~-------------------------------|
E|---------------------------------------------------------|

 After chorus
G|---------------------------------------------------------|
D|---------------------------------------------------------|
A|-----------5~---x3-----------2~---x1---------------------|
E|-0h33-0h33---------0h33-0h33-----------------------------|
[ Tab from: http://www.guitartabs.cc/tabs/b/box_car_racer/i_feel_so_btab_ver_6.html ]
 I wish i had power.........part
G|------------------------------------------------------|
D|------------------------------------------------------|
A|------------------------------------------------------|
E|-33-22-00-22-33-22-00-22------------------------------|
 
 Chorus x2
G|---------------------------------------------------------|
D|---------------------------------------------------------|
A|-7~~~---6~~~---4~~~---6~~~-------------------------------|
E|---------------------------------------------------------|

 After chorus
G|---------------------------------------------------------|
D|---------------------------------------------------------|
A|-----------5~---x8---------------------------------------|
E|-0h33-0h33-----------------------------------------------|

 For this little interlude part play A,2 to the rythm from the cd

 Then chorus again x4
G|---------------------------------------------------------|
D|---------------------------------------------------------|
A|-7~~~---6~~~---4~~~---6~~~-------------------------------|
E|---------------------------------------------------------|

 End on A,7

Numbskulz.com
Comments