Box Car Racer - I Feel So Chords & Tabs

 

I Feel So Chords & Tabs

Box Car Racer Chords & Tabs

Version: 5 Type: Bass Tab 0 ratings
1 star 2 stars 3 stars 4 stars 5 stars
comments

I Feel So Bass Tab

Band: Boxcar Racer
Song: I feel so
Album: Self Tittled (I think, but I could care less)
Tabbed by: Matt (MC) my e-mail is mlit37@yahoo.com
[I looked at the other tabs for this song on this site and they all didn't
seem right, no offense tabbers, but you were all very close. But I came up with
something better and I hope you like it and I hope it workes.]

"h" means "hameron"

-Intro-
G|-----------------------------------------------------------------------------|
D|-----------------------------------------------------------------------------|
A|---------------5555---------------5555---------------5555---------------5555-|
E|-2h3-33-2h3-33------2h3-33-2h3-33------2h3-33-2h3-33-----2h3-33-2h3-33-------|

G|-----------------------------------------------------------------------------|
D|-----------------------------------------------------------------------------|
A|---------------2222--------------2222--------------2222--------------2222----|
E|-0h3-33-0h3-33-----0h3-33-0h3-33-----0h3-33-0h3-33-----0h3-33-0h3-33---------|x2

G|-----------------------------------------------------------------------------|
D|-----------------------------------------------------------------------------|
A|---------------5555---------------5555---------------5555---------------5555-|
E|-2h3-33-2h3-33------2h3-33-2h3-33------2h3-33-2h3-33------2h3-33-2h3-33------|

G|-----------------------------------------------------------------------------|
D|-----------------------------------------------------------------------------|
A|---------------5555---------------5555---------------5555---------------00-2-|
E|-2h3-33-2h3-33------2h3-33-2h3-33------2h3-33-2h3-33------2h3-33-2h3-33------|
[ Tab from: http://www.guitartabs.cc/tabs/b/box_car_racer/i_feel_so_btab_ver_5.html ]
G|-----------------------------------------------------------------------------|
D|-----------------------------------------------------------------------------|
A|---------------5555---------------5555---------------5555---------------5~---|
E|-2h3-33-2h3-33------2h3-33-2h3-33------2h3-33-2h3-33------2h3-33-2h3-33------|

-Verse 1-
G|-----------------------|
D|-----------------------|
A|-----------------------|
E|-33-22-00-22-----------|x2

-Chorus-
G|--------------------------------------------------|
D|--------------------------------------------------|
A|-2222222-111111--------111111---------------------|
E|----------------444444----------------------------|x2 (I think it might be a
little bit higher, but I'm not sure.)


G|-----------------------------------------------------------------------------|
D|-----------------------------------------------------------------------------|
A|---------------5555---------------5555---------------5555---------------5555-|
E|-2h3-33-2h3-33------2h3-33-2h3-33------2h3-33-2h3-33-----2h3-33-2h3-33-------|


-Verse 2-
G|-----------------------|
D|-----------------------|
A|-----------------------|
E|-33-22-00-22-----------|x2

-Chorus-
G|--------------------------------------------------|
D|--------------------------------------------------|
A|-2222222-111111--------111111---------------------|
E|----------------444444----------------------------|x2

I don't think that there is bass in the guitar solo part thingy so I didn't
put any bass in it. 

-Chorus-
G|--------------------------------------------------|
D|--------------------------------------------------|
A|-2222222-111111--------111111---------------------|
E|----------------444444----------------------------|and just repeat this
throughout the rest of the song and you are set to go. I hope this is good enough
for you.  If there are any problems or questions or anything then e-mail me at
mlit37@yahoo.com. thanks "ultimate-guitar"!! peace.
Comments