Box Car Racer - I Feel So Chords & Tabs

 

I Feel So Chords & Tabs

Box Car Racer Chords & Tabs

Version: 2 Type: Bass Tab 0 ratings
1 star 2 stars 3 stars 4 stars 5 stars
comments

I Feel So Bass Tab

Main Riff:
G--------------------------------------------
D--------------------------------------------
A-------------555-----------555--------------X6
E---4-33-4-33-----4-33-4-33------------------

Verse:
G--------------------------------------------
D--------------------------------------------
A--------------------------------------------X1
E-----33-22----00-22----33-22----00-22-------

Chorus:
G--------------------------------------------
D--------------------------------------------
A---777777-666666-444444-666666--------------X2
E--------------------------------------------

Main Riff:
G--------------------------------------------
D--------------------------------------------
A-------------555-----------555--------------X2
E---4-33-4-33-----4-33-4-33------------------
[ Tab from: http://www.guitartabs.cc/tabs/b/box_car_racer/i_feel_so_btab_ver_2.html ]
Verse:
G--------------------------------------------
D--------------------------------------------
A--------------------------------------------X1
E-----33-22----00-22----33-22----00-22-------

Chorus:
G--------------------------------------------
D--------------------------------------------
A---777777-666666-444444-666666--------------X2
E--------------------------------------------

Main Riff:
G--------------------------------------------
D--------------------------------------------
A-------------555-----------555--------------X4
E---4-33-4-33-----4-33-4-33------------------

Bridge:
just sit around and look pretty because you don't get a bridge part!

Chorus:
G--------------------------------------------
D--------------------------------------------
A---777777-666666-444444-666666--------------X4
E--------------------------------------------
let ring on 4th

There you go 100% right tabs for you to enjoi!
Comments