Box Car Racer - End With You Chords & Tabs

 

End With You Chords & Tabs

Box Car Racer Chords & Tabs

Version: 3 Type: Tab 0 ratings
1 star 2 stars 3 stars 4 stars 5 stars
comments

End With You Tab

   
The End With You 
Boxcar Racer
Tabbed By: Justin H.


Hey! I hated seeing wrong tabs of this song so I tabbed it..
its almost perfect I swear.. thnx..comments or questions.. bxcr@hotmail.com
Intro Pt1:
Guitar 2:
E|-------------------------------------------------------------------|
B|-------------------------------------------------------------------|
G|---66666666666666666666666666666666--------------------------------|
D|---xxxxxxxxxxxxxxxxxxxxxxxxxxxxxxxx--------------------------------|
A|---44444444444444444444444444444444--------------------------------|
E|-------------------------------------------------------------------|

Intro Pt2:
Guitar 1:
X4
E|------------------------------------------------------------------|
B|------------------------------------------------------------------|
G|-------------------------6----------------------------------------|
D|---444-6h7--77777777-6-7-6----------------------------------------|
A|---444-6h7--77777777-6-7-4----------------------------------------|
E|---222-4h5--55555555-4-5------------------------------------------|

Guitar 2:
X3
***After Guitar 1ís Intro Pt2 plays once***
E|------------------------------------------------------------------|
B|------------------------------------------------------------------|
G|-------------------------6----------------------------------------|
D|---444-6-7--77777777-6-7-6----------------------------------------|
A|---444-6-7--77777777-6-7-4----------------------------------------|
E|---222-4-5--55555555-4-5------------------------------------------|

Verse: Pt.1:
Guitar 1:
E|------------------------------------------------------------------|
B|------------------------------------------------------------------|
G|------------------------------------------------------------------|
D|---444-6-777-------77---------------------------------------------|
A|---444-6-777---444-55-44------------------------------------------|
E|---222-4-555---222----22------------------------------------------|
P.M.             ... .. ..   

Verse Pt.2:
Guitar 1:
X7
E|------------------------------------------------------------------|
B|------------------------------------------------------------------|
G|------------------------------------------------------------------|
D|----------------77------------------------------------------------|
A|---77777777-444-55-44---------------------------------------------|
E|---55555555-222----22---------------------------------------------|
P.M. ........ ... .. ..

Fill A:
Guitar 2:
E|------------------------------------------------------------------|
B|------------------------------------------------------------------|
G|---6666666666666666-----------------------------------------------|
D|---xxxxxxxxxxxxxxxx-----------------------------------------------|
A|---4444444444444444-----------------------------------------------|
E|------------------------------------------------------------------|

Chorus:
Guitar 1:
E|-------------------------------------------------------------------|
B|-------------------------------------------------------------------|
G|---------------------------------7777------------------------------|
D|---777777777777777-77777777-4444-7777------------------------------|
A|---777777777777777-77777777-4444-5555------------------------------|
E|---555555555555555-44444444-2222-----------------------------------|

E|-------------------------------------------------------------------|
B|-------------------------------------------------------------------|
G|---------------------------------7777------------------------------|
D|---777777777777777-77777777-4444-7777------------------------------|
A|---777777777777777-77777777-4444-5555------------------------------|
E|---555555555555555-44444444-2222-----------------------------------|
[ Tab from: http://www.guitartabs.cc/tabs/b/box_car_racer/end_with_you_tab_ver_3.html ]
Fill B
Guitar 2:
E|------------------------------------------------------------------|
B|------------------------------------------------------------------|
G|-------------------------6----------------------------------------|
D|---444-6-7--77777777-6-7-6----------------------------------------|
A|---444-6-7--77777777-6-7-4----------------------------------------|
E|---222-4-5--55555555-4-5------------------------------------------|

Verse 2 Pt.1:
Guitar 1:
E|------------------------------------------------------------------|
B|------------------------------------------------------------------|
G|------------------------------------------------------------------|
D|---444-6-777-------77---------------------------------------------|
A|---444-6-777---444-55-44------------------------------------------|
E|---222-4-555---222----22------------------------------------------|
P.M.             ... .. ..


Verse 2 Pt.2:
Guitar 1:
X7
E|------------------------------------------------------------------|
B|------------------------------------------------------------------|
G|------------------------------------------------------------------|
D|----------------77------------------------------------------------|
A|---77777777-444-55-44---------------------------------------------|
E|---55555555-222----22---------------------------------------------|
P.M. ........ ... .. ..

Fill C:
Guitar 2:
E|------------------------------------------------------------------|
B|------------------------------------------------------------------|
G|---6666666666666666-----------------------------------------------|
D|---xxxxxxxxxxxxxxxx-----------------------------------------------|
A|---4444444444444444-----------------------------------------------|
E|------------------------------------------------------------------|

Chorus 2:
Guitar 1:
X4
E|-------------------------------------------------------------------|
B|-------------------------------------------------------------------|
G|---------------------------------7777------------------------------|
D|---777777777777777-77777777-4444-7777------------------------------|
A|---777777777777777-77777777-4444-5555------------------------------|
E|---555555555555555-44444444-2222-----------------------------------|

Solo Thingy Pt.1:
Guitar 1:
X2
E|------------------------------------------------------------------|
B|------------------------------------------------------------------|
G|------------66----------------------------------------------------|
D|---44-------66--------44------------------------------------------|
A|---44-------44-4h5-2--44------------------------------------------|
E|---22-4h5-5-----------22-4h5-5------------------------------------|

Solo Thingy Pt.2:
Guitar 1:
X4
E|------------------------------------------------------------------|
B|------------------------------------------------------------------|
G|-------------66------------------66-------------------------------|
D|---44--------66--------44--------66-------------------------------|
A|---44---4-0--44-4h5-2--44---4-0--44-4h5-2-------------------------|
E|---22-2----------------22-2---------------------------------------|
     |__________|
           |
During this and this only Guitar 2 plays the same thing but the first two power
chords palm muted, with distortion on
****** PLAY ONCE******JUST ONCE******DURING THAT SPECIFIC PART!!!*****

***Solo Pt 1 and 2 have an echo to them***

Last Chorus:
Guitar 1:
X4
E|-------------------------------------------------------------------|
B|-------------------------------------------------------------------|
G|---------------------------------7777------------------------------|
D|---777777777777777-77777777-4444-7777------------------------------|
A|---777777777777777-77777777-4444-5555------------------------------|
E|---555555555555555-44444444-2222-----------------------------------|

Last Riff:
Guitar 2:
E|-------------------------------------------------------------------|
B|-------------------------------------------------------------------|
G|---66666666666666666666666666666666--------------------------------|
D|---xxxxxxxxxxxxxxxxxxxxxxxxxxxxxxxx--------------------------------|
A|---44444444444444444444444444444444--------------------------------|
E|-------------------------------------------------------------------|

Thatís IT!!!! So sorry its kinda long..Have a great time playing this song
and rock on!!!!
DoNe!!! ;)
Comments