Box Car Racer - Elevator Chords & Tabs

 

Elevator Chords & Tabs

Box Car Racer Chords & Tabs

Version: 4 Type: Bass Tab 0 ratings
1 star 2 stars 3 stars 4 stars 5 stars
comments

Elevator Bass Tab

from Boxcar Racer
Elevator
Words and Music by Travis Barker and Tom De Longe
Moderately Fast = 154bpm



-The songs bass might not be there, but this is what i play.

-Either riff sounds perfectly fine, w/e u feel like playing.

-P.S. This song is very simple, and the same riff is repeated
 for the entire song. Enjoy, and please rate !



[ Tab from: http://www.guitartabs.cc/tabs/b/box_car_racer/elevator_btab_ver_4.html ]
Bass Riff
|-----------------|---------------4-|-5-5-5-5-5-5-5-4-|-4-4-4-4-4-4-4---|
|-5-5-5-5-5-5-5-5-|-5-5-5-5-5-5-7---|-----------------|--------------5-5|
|-----------------|-----------------|-----------------|-----------------|
|-----------------|-----------------|-----------------|-----------------|


          OR


Bass Riff
|-----------------|-----------------|-----------------|-----------------|
|-----------------|-----------------|-----------------|-----------------|
|-----------------|-------------0-2-|-3-3-3-3-3-3-3-2-|-2-2-2-2-2-2-2---|
|-3-3-3-3-3-3-3-3-|-3-3-3-3-3-3-----|-----------------|--------------3-3|
Comments