Box Car Racer - Elevator Chords & Tabs

 

Elevator Chords & Tabs

Box Car Racer Chords & Tabs

Version: 1 Type: Bass Tab 0 ratings
1 star 2 stars 3 stars 4 stars 5 stars
comments

Elevator Bass Tab

by domenic lafauci
box car racers elevator

key
~= hold 2 beats

intro and verse
g-----------
d-----------   x 4
a-----------
e-3-~---3-3-

pause

verse x6

fill
g--------------------------------
d--------------------------------
a---------3-3-3-3-3-3-2-2-2-2-2-2   x 1
e-3~-3-3-------------------------

[ Tab from: http://www.guitartabs.cc/tabs/b/box_car_racer/elevator_btab.html ]
after that
g-----------------------------------------
d-----------------------------------------
a----------------3-3-3-3-3-3-3-2-2-2-2-2-2  x5
e---3~--------------------------------------

outro
g----------------------------------------
d----------------------------------------
a-------------3-3-3-3-3-3-3-2-2-2-2-2-2-dont hold the last 2
e----------------------------------------
Comments