Box Car Racer - Cat Like Thief Chords & Tabs

 

Cat Like Thief Chords & Tabs

Box Car Racer Chords & Tabs

Version: 3 Type: Tab 0 ratings
1 star 2 stars 3 stars 4 stars 5 stars
comments

Cat Like Thief Tab

Wasuuuuuuuuuuuuup im back with a 100% right tab. 
Ummm i dont no wat to say except that it is correct, all of it. 
So enjoy. Standard Tuning. This song is played clean with a slow flanger.

     10x
e|-------------------------------------------------------------------|
B|-------------------------------------------------------------------|
G|-------------------------------------------------------------------|
D|-------7-------7-------7-------7--------7-------7------7-------7---|
A|---0-0---0-0-0--0--4-4---4-4-4---4--5-5---5-5-5---5-5-5---5-5-5--5-|
E|-------------------------------------------------------------------|


e|---------------------|
B|---------------------|play 4x
G|---------------------|
D|-------7-------7-----|
A|---0-0---0-0-0--0----|
E|---------------------|

e|---------------------|
B|---------------------|play 1x
G|---------------------|
D|-------7-------7-----|
A|---4-4---4-4-4---4---|
E|---------------------|

e|---------------------|
B|---------------------|play 1x
G|---------------------|
D|-------7-------7-----|
A|---5-5---5-5-5---5---|
E|---------------------|

e|---------------------|
B|---------------------|play 1x
G|---------------------|
D|-------7-------7-----|
A|---4-4---4-4-4---4---|
E|---------------------|

e|---------------------|
B|---------------------|play 1x
G|---------------------|
D|-------7-------7-----|
A|---7-7---7-7-7---7---|
E|---------------------|

12x
e|-------------------------------------------------------------------|
B|-------------------------------------------------------------------|
G|-------------------------------------------------------------------|
D|-------7-------7-------7-------7--------7-------7------7-------7---|
A|---0-0---0-0-0--0--4-4---4-4-4---4--5-5---5-5-5---5-5-5---5-5-5--5-|
E|-------------------------------------------------------------------|

e|---------------------|
B|---------------------|play 4x
G|---------------------|
D|-------7-------7-----|
A|---0-0---0-0-0--0----|
E|---------------------|

e|---------------------|
B|---------------------|play 1x
G|---------------------|
D|-------7-------7-----|
A|---4-4---4-4-4---4---|
E|---------------------|

e|---------------------|
B|---------------------|play 1x
G|---------------------|
D|-------7-------7-----|
A|---5-5---5-5-5---5---|
E|---------------------|

e|---------------------|
B|---------------------|play 1x
G|---------------------|
D|-------7-------7-----|
A|---4-4---4-4-4---4---|
E|---------------------|

e|---------------------|
B|---------------------|play 1x
G|---------------------|
D|-------7-------7-----|
A|---7-7---7-7-7---7---|
E|---------------------|
[ Tab from: http://www.guitartabs.cc/tabs/b/box_car_racer/cat_like_thief_tab_ver_3.html ]
e|---------------------|
B|---------------------|play 4x
G|---------------------|
D|-------7-------7-----|
A|---0-0---0-0-0--0----|
E|---------------------|

e|---------------------|
B|---------------------|play 1x
G|---------------------|
D|-------7-------7-----|
A|---4-4---4-4-4---4---|
E|---------------------|

e|---------------------|
B|---------------------|play 1x
G|---------------------|
D|-------7-------7-----|
A|---5-5---5-5-5---5---|
E|---------------------|

e|---------------------|
B|---------------------|play 1x
G|---------------------|
D|-------7-------7-----|
A|---4-4---4-4-4---4---|
E|---------------------|

e|---------------------|
B|---------------------|play 1x
G|---------------------|
D|-------7-------7-----|
A|---7-7---7-7-7---7---|
E|---------------------|

e|---------------------|
B|---------------------|play 4x
G|---------------------|
D|-------7-------7-----|
A|---0-0---0-0-0--0----|
E|---------------------|

e|---------------------|
B|---------------------|play 1x
G|---------------------|
D|-------7-------7-----|
A|---4-4---4-4-4---4---|
E|---------------------|

e|---------------------|
B|---------------------|play 1x
G|---------------------|
D|-------7-------7-----|
A|---5-5---5-5-5---5---|
E|---------------------|

e|---------------------|
B|---------------------|play 1x
G|---------------------|
D|-------7-------7-----|
A|---4-4---4-4-4---4---|
E|---------------------|

e|---------------------|
B|---------------------|play 1x
G|---------------------|
D|-------7-------7-----|
A|---7-7---7-7-7---7---|
E|---------------------|

e|---------------------|
B|---------------------|play 4x
G|---------------------|
D|-------7-------7-----|
A|---0-0---0-0-0--0----|
E|---------------------|

e|---------------------|
B|---------------------|play 1x
G|---------------------|
D|-------7-------7-----|
A|---4-4---4-4-4---4---|
E|---------------------|

e|---------------------|
B|---------------------|play 1x
G|---------------------|
D|-------7-------7-----|
A|---5-5---5-5-5---5---|
E|---------------------|

e|---------------------|
B|---------------------|play 1x
G|---------------------|
D|-------7-------7-----|
A|---4-4---4-4-4---4---|
E|---------------------|

e|---------------------|
B|---------------------|play 1x
G|---------------------|
D|-------7-------7-----|
A|---7-7---7-7-7---7---|
E|---------------------|

e|---------------------------|
B|---------------------------|play until the song is over
G|---------------------------|
D|-------7------7------------|
A|---0-0---0-0-0--0--4-5-5-5-|
E|---------------------------|

Thats it guys hope u liked it, rate it, and of coarse. 
KEEP ON ROCKIN!!!
Comments