Box Car Racer - Cat Like Thief Chords & Tabs

 

Cat Like Thief Chords & Tabs

Box Car Racer Chords & Tabs

Version: 2 Type: Tab 0 ratings
1 star 2 stars 3 stars 4 stars 5 stars
comments

Cat Like Thief Tab

okay, here's the deal, this is my second time writing tab, so i'm starting of easy to 
build up skill.

e|---------------------------------------------|
B|---------------------------------------------|
G|---2-----2------2-----2-----2---2----2---2---|
D|--------------------------00--00---00--00----|
A|-00----00-----44----44---4--------4----------|
E|---------------------------------------------|
[ Tab from: http://www.guitartabs.cc/tabs/b/box_car_racer/cat_like_thief_tab_ver_2.html ]
repeat this throughout the whole song. there is an outro, but i didn't try to tab it 
out yet.

another version of it is this.

e|---------------------------------------------|
B|---------------------------------------------|
G|---2-----2------2-----2------2---2-----2---2-|
D|--------------------------000--00---000--00--|
A|-00----00-----44----44-----------------------|
E|---------------------------------------------|
Comments