Box Car Racer - All Systems Go Chords & Tabs

 

All Systems Go Chords & Tabs

Box Car Racer Chords & Tabs

Version: 8 Type: Tab 0 ratings
1 star 2 stars 3 stars 4 stars 5 stars
comments

All Systems Go Tab

Title:All Systems Go
Artist:Boxcar Racer
Tab: Josč Jesųs Eddy Silva Guajardo (raqyadodecorazon1@hotmail.com)


Intro:
Opening
E|--------------------------------------------|
B|--------------------------------------------|
G|--------------------------------------------|
D|---7777-777-77777777--7777-777-77777777-----|
A|---xxxx-xxx-xxxxxxxx--xxxx-xxx-xxxxxxxx-----|
E|---5555-555-55555555--5555-555-55555555-----|


Main Riff
E|--------------------------------------------|
B|--------------------------------------------|
G|------666-----------------------------------|   x4
D|--777-666-666-777-666-----------------------|
A|--777-444-666-777-666-00--------------------|
E|--555-----444-555-444-00--------------------|

Verse

E|--------------------------------------------|
B|--------------------------------------------|
G|--------------------------------------------|   x4
D|-7777777777777/111111111111-----22222-------|
A|-xxxxxxxxxxxxx/-x-x-x-x-x-x-----xxxxx-------|
E|-5555555555555/-9-9-9-9-9-9--0--44444-------|


Chorus

E|--------------------------------------------|
B|--------------------------------------------|
G|-55555555-44444444--------------------------|   x4
D|-55555555-44444444-77777777-33333333--------|
A|-33333333-22222222-77777777-33333333--------|
E|-------------------55555555-11111111--------|


E|----------------------|
B|----------------------|
G|----------------------|
D|---7777-777-77777777--|
A|---xxxx-xxx-xxxxxxxx--|
E|---5555-555-55555555--|


E|--------------------------------------------|
B|--------------------------------------------|
G|------666-----------------------------------|   x2
D|--777-666-666-777-666-----------------------|
A|--777-444-666-777-666-00--------------------|
E|--555-----444-555-444-00--------------------|


Verse

E|--------------------------------------------|
B|--------------------------------------------|
G|--------------------------------------------|   x4
D|-7777777777777/111111111111-----22222-------|
A|-xxxxxxxxxxxxx/-x-x-x-x-x-x-----xxxxx-------|
E|-5555555555555/-9-9-9-9-9-9--0--44444-------|

E|----------------------|
B|----------------------|
G|----------------------|
D|---7777-777-77777777--|
A|---xxxx-xxx-xxxxxxxx--|
E|---5555-555-55555555--|
[ Tab from: http://www.guitartabs.cc/tabs/b/box_car_racer/all_systems_go_tab_ver_8.html ]
E|--------------------------------------------|
B|--------------------------------------------|
G|-55555555-44444444--------------------------|   x4
D|-55555555-44444444-77777777-33333333--------|
A|-33333333-22222222-77777777-33333333--------|
E|-------------------55555555-11111111--------|

E|--------------------------------------------|
B|--------------------------------------------|
G|--------------------------------------------|   x4
D|--------------------------------------------|
A|--------------------------------------------|
E|----5-5-5-4-4-4-5-5-5-5-5-5-5-5-------------|
PM    . . . . . . . . . . . . . .

E|---------|
B|---------|
G|---------|
D|---8877--|
A|---xxxx--|
E|---6655--|


E|--------------------------------------------|
B|--------------------------------------------|
G|--------------------------------------------|   x4
D|--------------------------------------------|
A|--------------------------------------------|
E|----5-5-5-4-4-4-5-5-5-5-5-5-5-5-------------|
PM    . . . . . . . . . . . . . .


E|--------------------------------------------|
B|--------------------------------------------|
G|-55555555-44444444--------------------------|   x4
D|-55555555-44444444-77777777-33333333--------|
A|-33333333-22222222-77777777-33333333--------|
E|-------------------55555555-11111111--------|


E|--------------------------------------------|
B|--------------------------------------------|
G|------666-----------------------------------|   x3
D|--777-666-666-777-666-----------------------|
A|--777-444-666-777-666-00--------------------|
E|--555-----444-555-444-00--------------------|

E|-------------------|
B|-------------------|
G|------666----------| 
D|--777-666-666-77~--|
A|--777-444-666-77~--|
E|--555-----444-55~--|



<<<-------------------------------------------------------------------->>>

[Tom]
I left my fear behind me,
Of those lights out by the station,
The government is lying,
The youth they won't believe them,

[Chorus]
We can't go
Wrong can't get
Fucked this time
Speak up now
Lose or get
Left behind

[Tom]
When will this be over,
This cold and bitter season,
The government is lying,
The truth is found with reason,

[Chorus x3]
We can't go
Wrong can't get
Fucked this time
Speak up now
Lose or get
Left behind

[Tom]
We are the
Underrated
All forgotten
Kids who made it
Speak up now
Lose or get
Left behind
Comments