Box Car Racer - All Systems Go Chords & Tabs

 

All Systems Go Chords & Tabs

Box Car Racer Chords & Tabs

Version: 7 Type: Tab 0 ratings
1 star 2 stars 3 stars 4 stars 5 stars
comments

All Systems Go Tab

Title: All Systems Go
Tabbed by: Lewis Mitchell 


Intro
e|----------------------------------------|
B|----------------------------------------|
G|----------------------------------------|
D|----------------------------------------|
A|--77-77-777-7777777--77-77-777-7777777--|
E|--55-55-555-5555555--55-55-555-5555555--|


e|----------------------------------------|
B|----------------------------------------|
G|---------6-6-6--------------------------| x4
D|--7-7-7--6-6-6--4-4-4--7-7-7--6-6--2-2--|
A|--7-7-7--4-4-4--4-4-4--7-7-7--6-6--2-2--|
E|--5-5-5---------2-2-2--5-5-5--4-4--0-0--|

Verse "not right there behind me"
e|----------------------------------------------------------------------|
B|----------------------------------------------------------------------|
G|----------------------------------6-6-6-6-6-6-6-----------------------| x4
D|-7-7-7-7-7-7-7-7-7-7-7-7-7-7-7-7--x-x-x-x-x-x-x-----4-4-4-4--6-6-6-6--|
A|-7-7-7-7-7-7-7-7-7-7-7-7-7-7-7-7--4-4-4-4-4-4-4-----x-x-x-x--x-x-x-x--|
E|-5-5-5-5-5-5-5-5-5-5-5-5-5-5-5-5-----------------0--2-2-2-2--4-4-4-4--|

Chorus "we can't go"
e|----------------------------------------------------------------------|
B|----------------------------------------------------------------------|
G|--5-5-5-5-5-5-5-5--4-4-4-4-4-4-4-4--2-2-2-2-2-2-2-2-------------------| x2
D|--5-5-5-5-5-5-5-5--5-5-5-5-5-5-5-5--2-2-2-2-2-2-2-2--3-3-3-3-3-3-3-3--|
A|--3-3-3-3-3-3-3-3--2-2-2-2-2-2-2-2--0-0-0-0-0-0-0-0--3-3-3-3-3-3-3-3--|
E|-----------------------------------------------------1-1-1-1-1-1-1-1--|


e|---------------------|
B|---------------------|
G|---------------------|
D|---------------------|
A|--77-77-777-7777777--|
E|--55-55-555-5555555--|


e|----------------------------------------|
B|----------------------------------------|
G|---------6-6-6--------------------------| x2
D|--7-7-7--6-6-6--4-4-4--7-7-7--6-6--2-2--|
A|--7-7-7--4-4-4--4-4-4--7-7-7--6-6--2-2--|
E|--5-5-5---------2-2-2--5-5-5--4-4--0-0--|
[ Tab from: http://www.guitartabs.cc/tabs/b/box_car_racer/all_systems_go_tab_ver_7.html ]
Verse "when will this be over"
e|----------------------------------------------------------------------|
B|----------------------------------------------------------------------|
G|----------------------------------6-6-6-6-6-6-6-----------------------| x4
D|-7-7-7-7-7-7-7-7-7-7-7-7-7-7-7-7--x-x-x-x-x-x-x-----4-4-4-4--6-6-6-6--|
A|-7-7-7-7-7-7-7-7-7-7-7-7-7-7-7-7--4-4-4-4-4-4-4-----x-x-x-x--x-x-x-x--|
E|-5-5-5-5-5-5-5-5-5-5-5-5-5-5-5-5-----------------0--2-2-2-2--4-4-4-4--|

e|---------------------|
B|---------------------|
G|---------------------|
D|---------------------|
A|--77-77-777-7777777--|
E|--55-55-555-5555555--|

e|----------------------------------------------------------------------|
B|----------------------------------------------------------------------|
G|--5-5-5-5-5-5-5-5--4-4-4-4-4-4-4-4--2-2-2-2-2-2-2-2-------------------| x4
D|--5-5-5-5-5-5-5-5--5-5-5-5-5-5-5-5--2-2-2-2-2-2-2-2--3-3-3-3-3-3-3-3--|
A|--3-3-3-3-3-3-3-3--2-2-2-2-2-2-2-2--0-0-0-0-0-0-0-0--3-3-3-3-3-3-3-3--|
E|-----------------------------------------------------1-1-1-1-1-1-1-1--|

Interlude

E|------|
B|------|
G|------|
D|------|
A|------|
E|--5b--|

I don't know exactly what this part is. I would just keep bending the 5th fret.

E|------|
B|------|
G|------|
D|--7~--|
A|--7~--|
E|--5~--|

e|----------------------------------------------------------------------|
B|----------------------------------------------------------------------|
G|--5-5-5-5-5-5-5-5--4-4-4-4-4-4-4-4--2-2-2-2-2-2-2-2-------------------| x4
D|--5-5-5-5-5-5-5-5--5-5-5-5-5-5-5-5--2-2-2-2-2-2-2-2--3-3-3-3-3-3-3-3--|
A|--3-3-3-3-3-3-3-3--2-2-2-2-2-2-2-2--0-0-0-0-0-0-0-0--3-3-3-3-3-3-3-3--|
E|-----------------------------------------------------1-1-1-1-1-1-1-1--|

e|----------------------------------------|
B|----------------------------------------|
G|---------6-6-6--------------------------| x3
D|--7-7-7--6-6-6--4-4-4--7-7-7--6-6--2-2--|
A|--7-7-7--4-4-4--4-4-4--7-7-7--6-6--2-2--|
E|--5-5-5---------2-2-2--5-5-5--4-4--0-0--|

e|-----------------------------|
B|-----------------------------|
G|---------6-6-6---------------|
D|--7-7-7--6-6-6--4-4-4--7-7-7-|
A|--7-7-7--4-4-4--4-4-4--7-7-7-|
E|--5-5-5---------2-2-2--5-5-5-|
Comments