Box Car Racer - All Systems Go Chords & Tabs

 

All Systems Go Chords & Tabs

Box Car Racer Chords & Tabs

Version: 6 Type: Tab 0 ratings
1 star 2 stars 3 stars 4 stars 5 stars
comments

All Systems Go Tab

Boxcar Racer  
All Systems Go
Boxcar Racer
Tabbed By: Mike, whtsmyageagn182@hotmail.com
Standard Tuning

Intro  Pt 1
e---------------------------------------------------|x1
B---------------------------------------------------|
G---------------------------------------------------|
D---------------------------------------------------|
A-000-0-000-0-0-0-0-0-0-00-0-0-0-0-000-0-0-0-0-0-0--|
E-555-5-555-5-5-5-5-5-5-55-5-5-5-5-555-5-5-5-5-5-5--|

Pt 2
e------------------------|x4
B------------------------|
G-----666----------------|
D-777-666-666-777-66-22--|
A-777-444-666-777-66-22--|
E-555-----444-555-44-00--|

Verse
e---------------------------------------|x4
B---------------------------------------|
G---------------------------------------|
D-----------------4/66666666------------|
A-000000000000000-2/44444444-4444-6666--|
E-555555555555555------------2222-4444--|
[ Tab from: http://www.guitartabs.cc/tabs/b/box_car_racer/all_systems_go_tab_ver_6.html ]
Chorus
e--------------------------------------|x2
B--------------------------------------|
G-5555555555555555-222222222-----------|
D-5555555555555555-222222222-33333333--|
A-3333333322222222-000000000-33333333--|
E----------------------------11111111--|

(Intro Pt1)x1
(Intro Pt2)x2
(Verse)x4
(Intro Pt1)x1
(Chorus)x4

Bridge  Gt 1(P.M. and repeat until end of Bridge)
e----|
B----|
G----|
D----|
A-0--|
E-5--|

Gt 2(bend with some effect)
e----|
B----|
G----|
D----|
A-0--|
E-5--|

(Chorus)x4

Outro(Gt 2 has his volume turned down to about 4 for this part only)
e------x2-Gt2-only------|-------------both-guitars----------------|
B-----------------------|-----------------------------------------|
G-----666---------------|-----666-------------------666-----------|
D-777-666-666-777-66-22-|-777-666-666-777-66-22-777-666-666-77~~--|
A-777-444-666-777-66-22-|-777-444-666-777-66-22-777-444-666-77~~--|
E-555-----444-555-44-00-|-555-----444-555-44-00-555-----444-55~~--|
Comments