Box Car Racer - All Systems Go Chords & Tabs

 

All Systems Go Chords & Tabs

Box Car Racer Chords & Tabs

Version: 4 Type: Tab 0 ratings
1 star 2 stars 3 stars 4 stars 5 stars
comments

All Systems Go Tab

   
-------------------------------------------------------------------------------
			     Boxcar Racer  All Systems Go
-------------------------------------------------------------------------------

Tabbed by: Andrew
Email: crazygasbag@msn.com

Tuning: Standard                 THIS VERSION IS 100%CORRECT
[ Tab from: http://www.guitartabs.cc/tabs/b/box_car_racer/all_systems_go_tab_ver_4.html ]
INTRO
e|---------------------------------------------------------------------------|
B|---------------------------------------------------------------------------|
G|---------------------------------------0-----------------------------------|
D|-----------------------6-6-------------0-----------------------------------|
A|-7-7-7-7-7-7-7-7---7-7-4-4-6-6/7-7\6-6-0-----------------------------------|
E|-5-5-5-5-5-5-5-5---5-5-----4-4/5-5\4-4-0-----------------------------------|
                     |     Repeat x4     |    
VERSE
e|------------------------------------------------------------------------|
B|------------------------------------------------------------------------|
G|------------------------------------------------------------------------|  X4
D|-------------6-6-6-2----------------------------------------------------|  X4
A|-7-7-7-7-7-7-4-4-4-2-4-4-4----------------------------------------------|
E|-5-5-5-5-5-5-------0-2-2-2----------------------------------------------|

CHORUS (ALL DOWN STROKES)
e|------------------------------------------------------------------------|
B|------------------------------------------------------------------------|
G|------------------------------------------------------------------------|  X4
D|-5-5-5-5--3-3-3-3-------------------------------------------------------|  X4
A|-3-3-3-3--2-2-2-2--7-7-7-7--3-3-3---------------------------------------|
E|-------------------5-5-5-5--1-1-1---------------------------------------|

SOLO  (LOTS OF EFFECTS-JUST BEND)
e|-------------|
B|-------------|
G|-------------|
D|-------------|
A|-------------|
E|------5b-----|
INTRO
VERSE
CHORUS
INTRO 
VERSE
CHORUS
SOLO
CHORUS
INTRO
| /  slide up
| \  slide down
| h  hammer-on
| p  pull-off 
| ~  vibrato
| +  harmonic
| x  mute note
Comments